Tonight, Jonas Brother (tablatura)

Autor: catalinaa | 40801 visualizaciones

|-----------------------------------|
|-----------------------------------|
|-9-9-989-9-9-989-9-9-989-9-9-14-13-| 2x
|-9-9-989-9-9-989-9-9-989-9-9-14-13-|
|-7-7-767-7-7-767-7-7-767-7-7-12-11-|
|-----------------------------------|

Verse:
|----------------------------------------------------------|
|----------------------------------------------------------|
|-6--------4-----------------6----------4------------------|
|-6--------4-------------7---6----------4----------------7-|
|-4--------2-------------7---4----------2----------------7-|
|------------------------5-------------------------------5-|
        so here we are again,  throwing punchlines no one wins
    as the morning sun begins to rise

Pre-chorus
|--------------------------------------------------------|
|--------------------------------------------------------|
|--------------------------------------------------------|
|------------------------------------------------------9-|
|------------------------------------------------------9-|
|-------------0-2-0-2----------0-2-0-2---3-4-3-4-3-4-3-7-|
We're fading fast,     and we won't     this out

Chorus:
|-----------------|
|-----------------|
|------4----------| 4x
|-2----4-8x-7-----|
|-2-8x-2----7-16x-|
|-0---------5-----|

play the intro..

The part where nick sings this line: "We don't have to fight
We just gotta try"
|------------------------------------------------------------|
|------------------------------------------------------------|
|-6--------------------------------6-------------------------|
|-6-8x-----------------7----4------6-8x---------------7----7-|
|-4--------------------7-8x-4-16x--4------------------7-8x-7-|
|----------------------5----2-------------------------5----5-|
      we don't have to fight            we just gotta try

the lines:
Well, there's no need to fight
We're just wasting time
(Tonight)
If you give it time
Well then maybe you'll find
(We might work this out)
Well, we know we're in love
So let's keep it alive
Keep it alive, keep it alive
I'm starting to see the morning light
We finally work this out
the riff is just the same as the intro...
except there's no...
|-------|
|-------|
|-14-13-|
|-14-13-|
|-12-11-|
|-------|
you just keep repeating this part...
|---------|
|---------|
|-9-9-989-|
|-9-9-989-|
|-7-7-767-|
|---------|
Calificar esta versión:
Aviso: Este fichero es trabajo propio de su transcriptor y representa su interpretación personal de la canción. El material contenido en esta página es para exclusivo uso privado, por lo que se prohibe su reproducción o retransmisión, así como su uso para fines comerciales.