Jaws Of Life, John Petrucci (tablatura)

Autor: eric_slayer(696) | 27853 visualizaciones

bueno aca les va otro tema vastante fasil..yo eric de batan

Guitare 1 
                                                                    
E||----------------|---------------------|------------------------| 
B||----------------|---------------------|------------------------| 
G||----------------|---------------------|------------------------| 
D||----------------|---------------------|------------------------| 
A||----------------|---------------------|------------------------| 
E||----------------|---------------------|------------------2-1---| 
B||----------12/---|--2-2--2--2-3--2--0--|--2-2--2--2-3-2-0-----3-| 
 
 
                                                                     
---------------------|-----------------------|---------------------| 
---------------------|-----------------------|---------------------| 
---------------------|-----------------------|---------------------| 
---------------------|-----------------------|---------------------| 
---------------------|----------2-5-4~-------|---------------------| 
---------------1--2--|--------2--------------|---------------------| 
--2-2--2--2-3--------|--0-2-3----------0--3--|--2-2--2--2-3--2--0--| 
 
 
                                                                             
------------------------|---------------------|----------------------------| 
------------------------|---------------------|----------------------------| 
------------------------|---------------------|----------------------------| 
------------------------|---------------------|----------------------------| 
------------------------|---------------------|--5-4-2---------------------| 
------------------2-1---|---------------------|--------5-4-2-------5-4-2---| 
--2-2--2--2-3-2-0-----3-|--2-2--2--2-3--2--0--|--------------5-3-2-------3-| 
 
 
                                                                      
---------------------|------------------------|---------------------| 
---------------------|------------------------|---------------------| 
---------------------|------------------------|---------------------| 
---------------------|------------------------|---------------------| 
---------------------|------------------------|---------------------| 
---------------------|------------------2-1---|---------------1--2--| 
--2-2--2--2-3--2--0--|--2-2--2--2-3-2-0-----3-|--2-2--2--2-3--------| 
 
 
                                                                        
-----------------------|---------------------|------------------------| 
-----------------------|---------------------|------------------------| 
-----------------------|---------------------|------------------------| 
-----------------------|---------------------|------------------------| 
----------2-5-4~-------|---------------------|------------------------| 
--------2--------------|---------------------|------------------2-1---| 
--0-2-3----------0--3--|--2-2--2--2-3--2--0--|--2-2--2--2-3-2-0-----3-| 
 
 
                                                                           
---------------------|----------------------------||---------------------| 
---------------------|----------------------------||---------------------| 
---------------------|----------------------------||---------------------| 
---------------------|----------------------------||---------------------| 
---------------------|--5-4-2---------------------||---------------------| 
---------------------|--------5-4-2-------5-4-2---||--4-4--4--4-5--4--2--| 
--2-2--2--2-3--2--0--|--------------5-3-2-------3-||--2-2--2--2-3--2--0--| 
 
 
                                                                           
------------------------|---------------------|-------------------------|| 
------------------------|---------------------|-------------------------|| 
------------------------|---------------------|-------------------------|| 
------------------------|---------------------|-------------------------|| 
------------------------|---------------------|------------2-----1------|| 
--4-4--4----5/7---5/7---|--4-4--4--4-5--4--2--|--4-4--4--4---3-----2----|| 
--2-2--2--0-3/5-0-3/5-0-|--2-2--2--2-3--2--0--|--2-2--2--------4-----3--|| 
 
 
                      3x                                             
----------------------||---------------------|---------------------| 
----------------------||---------------------|---------------------| 
----------------------||---------------------|---------------------| 
----------------------||---------------------|---------------------| 
----------------------||---------------------|---------------------| 
--4-4-------5--4--2---||--4-4-------5--4--2--|--4-4-------5--4--2--| 
--2-2--2--2-3--2--0---||--2-2--2--2-3--2--0--|--2-2--2--2-3--2--0--| 
 
 
                                                                   
---------------------|---------------------|---------------------| 
---------------------|---------------------|---------------------| 
---------------------|---------------------|---------------------| 
---------------------|---------------------|---------------------| 
---------------------|---------------------|---------------------| 
--4-4-------5--4--2--|--4-4-------5--4--2--|--4-4-------5--4--2--| 
--2-2--2--2-3--2--0--|--2-2--2--2-3--2--0--|--2-2--2--2-3--2--0--| 
 
 
                                                                   
---------------------|---------------------|---------------------| 
---------------------|---------------------|---------------------| 
---------------------|---------------------|---------------------| 
---------------------|---------------------|---------------------| 
---------------------|---------------------|---------------------| 
--4-4-------5--4--2--|--4-4-------5--4--2--|--4-4-------5--4--2--| 
--2-2--2--2-3--2--0--|--2-2--2--2-3--2--0--|--2-2--2--2-3--2--0--| 
 
 
                                                                   
---------------------|---------------------|---------------------| 
---------------------|---------------------|---------------------| 
---------------------|---------------------|---------------------| 
---------------------|---------------------|---------------------| 
---------------------|---------------------|---------------------| 
--4-4-------5--4--2--|--2-2-------2--2--5--|--4-4-------5--4--2--| 
--2-2--2--2-3--2--0--|--0-0--0--0-0--0--3--|--2-2--2--2-3--2--0--| 
 
 
                                                                   
---------------------|---------------------|---------------------| 
---------------------|---------------------|---------------------| 
---------------------|---------------------|---------------------| 
---------------------|---------------------|---------------------| 
---------------------|---------------------|---------------------| 
--4-4-------5--4--2--|------------5--4--2--|--4-4--4--4-5--4--2--| 
--2-2--2--2-3--2--0--|--2-2--2--2-3--2--0--|--2-2--2--2-3--2--0--| 
 
 
                                                                                 
---------------|---------------|---------------|---------------|---------------| 
---------------|---------------|---------------|---------------|---------------| 
---------------|---------------|---------------|---------------|---------------| 
---------------|---------------|---------------|---------------|---------------| 
--9------------|--5------------|--7------------|--4------------|--9------------| 
--7------------|--3------------|--5------------|--2------------|--7------------| 
---------------|---------------|---------------|---------------|---------------| 
 
 
                                                                                 
---------------|---------------|---------------|---------------|---------------| 
---------------|---------------|---------------|---------------|---------------| 
---------------|---------------|---------------|---------------|---------------| 
---------------|---------------|---------------|---------------|---------------| 
--5------------|--7------------|--7------------|--9------------|--5------------| 
--3------------|--5------------|--5------------|--7------------|--3------------| 
---------------|---------------|---------------|---------------|---------------| 
 
 
                                                                                
---------------|---------------|---------------|--------------|---------------| 
---------------|---------------|---------------|--------------|---------------| 
---------------|---------------|---------------|--------------|---------------| 
---------------|---------------|---------------|--------------|---------------| 
--7------------|--4------------|--5------------|--------------|--2------------| 
--5------------|--2------------|--3------------|--------------|--0------------| 
---------------|---------------|---------------|--------------|---------------| 
 
 
                                                                 
----------------|---------------------|------------------------| 
----------------|---------------------|------------------------| 
----------------|---------------------|------------------------| 
----------------|---------------------|------------------------| 
--4-------------|---------------------|------------------------| 
--2------5------|---------------------|------------------2-1---| 
---------3------|--2-2--2--2-3--2--0--|--2-2--2--2-3-2-0-----3-| 
 
 
                                                                     
---------------------|-----------------------|---------------------| 
---------------------|-----------------------|---------------------| 
---------------------|-----------------------|---------------------| 
---------------------|-----------------------|---------------------| 
---------------------|----------2-5-4~-------|---------------------| 
---------------1--2--|--------2--------------|---------------------| 
--2-2--2--2-3--------|--0-2-3----------0--3--|--2-2--2--2-3--2--0--| 
 
 
                                                                             
------------------------|---------------------|----------------------------| 
------------------------|---------------------|----------------------------| 
------------------------|---------------------|----------------------------| 
------------------------|---------------------|----------------------------| 
------------------------|---------------------|--5-4-2---------------------| 
------------------2-1---|---------------------|--------5-4-2-------5-4-2---| 
--2-2--2--2-3-2-0-----3-|--2-2--2--2-3--2--0--|--------------5-3-2-------3-| 
 
 
                                                                       
|---------------------|------------------------|---------------------| 
|---------------------|------------------------|---------------------| 
|---------------------|------------------------|---------------------| 
|---------------------|------------------------|---------------------| 
|---------------------|------------------------|---------------------| 
|--4-4--4--4-5--4--2--|--4-4--4----5/7---5/7---|--4-4--4--4-5--4--2--| 
|--2-2--2--2-3--2--0--|--2-2--2--0-3/5-0-3/5-0-|--2-2--2--2-3--2--0--| 
 
 
                                                 3x                       
-------------------------||----------------------||---------------------| 
-------------------------||----------------------||---------------------| 
-------------------------||----------------------||---------------------| 
-------------------------||----------------------||---------------------| 
------------2-----1------||----------------------||---------------------| 
--4-4--4--4---3-----2----||--4-4-------5--4--2---||--4-4-------5--4--2--| 
--2-2--2--------4-----3--||--2-2--2--2-3--2--0---||--2-2--2--2-3--2--0--| 
 
 
                                                                   
---------------------|---------------------|---------------------| 
---------------------|---------------------|---------------------| 
---------------------|---------------------|---------------------| 
---------------------|---------------------|---------------------| 
---------------------|---------------------|---------------------| 
--4-4-------5--4--2--|--4-4-------5--4--2--|--4-4-------5--4--2--| 
--2-2--2--2-3--2--0--|--2-2--2--2-3--2--0--|--2-2--2--2-3--2--0--| 
 
 
                                                                   
---------------------|---------------------|---------------------| 
---------------------|---------------------|---------------------| 
---------------------|---------------------|---------------------| 
---------------------|---------------------|---------------------| 
---------------------|---------------------|---------------------| 
--4-4-------5--4--2--|--4-4-------5--4--2--|--4-4-------5--4--2--| 
--2-2--2--2-3--2--0--|--2-2--2--2-3--2--0--|--2-2--2--2-3--2--0--| 
 
 
                                                                   
---------------------|---------------------|---------------------| 
---------------------|---------------------|---------------------| 
---------------------|---------------------|---------------------| 
---------------------|---------------------|---------------------| 
---------------------|---------------------|---------------------| 
--4-4-------5--4--2--|--4-4-------5--4--2--|--2-2-------2--2--5--| 
--2-2--2--2-3--2--0--|--2-2--2--2-3--2--0--|--0-0--0--0-0--0--3--| 
 
 
                                                                   
---------------------|---------------------|---------------------| 
---------------------|---------------------|---------------------| 
---------------------|---------------------|---------------------| 
---------------------|---------------------|---------------------| 
---------------------|---------------------|---------------------| 
--4-4-------5--4--2--|--4-4-------5--4--2--|------------5--4--2--| 
--2-2--2--2-3--2--0--|--2-2--2--2-3--2--0--|--2-2--2--2-3--2--0--| 
 
 
                                                                       
---------------------|---------------|---------------|---------------| 
---------------------|---------------|---------------|---------------| 
---------------------|---------------|---------------|---------------| 
---------------------|---------------|---------------|---------------| 
---------------------|--9------------|--5------------|--7------------| 
--4-4-------5--4--2--|--7------------|--3------------|--5------------| 
--2-2--2--2-3--2--0--|---------------|---------------|---------------| 
 
 
                                                                                 
---------------|---------------|---------------|---------------|---------------| 
---------------|---------------|---------------|---------------|---------------| 
---------------|---------------|---------------|---------------|---------------| 
---------------|---------------|---------------|---------------|---------------| 
--4------------|--9------------|--5------------|--7------------|--7------------| 
--2------------|--7------------|--3------------|--5------------|--5------------| 
---------------|---------------|---------------|---------------|---------------| 
 
 
                                                                                 
---------------|---------------|---------------|---------------|---------------| 
---------------|---------------|---------------|---------------|---------------| 
---------------|---------------|---------------|---------------|---------------| 
---------------|---------------|---------------|---------------|---------------| 
--9------------|--5------------|--7------------|--4------------|--5------------| 
--7------------|--3------------|--5------------|--2------------|--3------------| 
---------------|---------------|---------------|---------------|---------------| 
 
 
                                                                          
--------------|---------------|----------------|------------------------| 
--------------|---------------|----------------|------------------------| 
--------------|---------------|----------------|------------------------| 
--------------|---------------|----------------|------------------------| 
--------------|--2------------|--4-------------|------------------5/4---| 
--------------|--0------------|--2------5------|------------7-5-------5-| 
--------------|---------------|---------3------|--0-0--0--0-----7-------| 
 
 
                                                                          
------------------------|------------------------|----------------------| 
------------------------|------------------------|----------------------| 
------------------------|------------------------|----------------------| 
------------------------|------------------------|----------------------| 
------------------------|------------------5/4---|----------------------| 
--7---------7-5---5/4---|------------7-5-------5-|--7---------5---------| 
----0--0--0-----7-----5-|--7-0--0--0-----7-------|----5--5--0---3--3--3b| 
 
 
                                                                            
------------------------|------------------------|------------------------| 
------------------------|------------------------|------------------------| 
------------------------|------------------------|------------------------| 
------------------------|------------------------|------------------------| 
------------------5/4---|------------------------|------------------5/4---| 
------------7-5-------5-|--7---------7-5---5/4---|------------7-5-------5-| 
--0-0--0--0-----7-------|----0--0--0-----7-----5-|--7-0--0--0-----7-------| 
 
 
                                                                                
----------------------|---------------|---------------------|-----------------| 
----------------------|---------------|---------------------|-----------------| 
----------------------|---------------|---------------------|-----------------| 
----------------------|--9~-----------|------------7--9--7--|--9r---------7---| 
----------------------|---------------|-------4/9-----------|---------------9-| 
--7---------5---------|---------------|---------------------|-----------------| 
----5--5--0---3--3--3b|---------------|---------------------|-----------------| 
 
 
                                                                           
---------------------|------------------------|-----------7--------------| 
---------------------|------------------------|-----------7--------------| 
---------------------|---------------------7b-|------9b-----10/9-7---9---| 
--7-9-7-9-7~------2--|---------------7-8-9----|--9-7---------------9---9-| 
---------------------|-------x-7-8-9----------|--------------------------| 
---------------------|------------------------|--------------------------| 
---------------------|------------------------|--------------------------| 
 
 
                                                                       
---------------------------|--------------|-----------7--------------| 
---------------------------|--------------|-----------7--------------| 
--7-8-9--------------------|--------------|------9b-----10/9h7---9---| 
------9---7----------------|--------------|--9-7---------------9---9-| 
--------9---9-8-7----------|--------------|--------------------------| 
------------------10-7-10~-|--------------|--------------------------| 
---------------------------|--------------|--------------------------| 
 
 
                                                            
---------------------------|--------------|---------------| 
---------------------------|--------------|--9b-----------| 
--7h8-9--------------------|--------------|---------------| 
------9---7----------------|--------------|---------------| 
--------9---9-8-7----------|--------------|---------------| 
------------------10-7-10~-|--------------|---------------| 
---------------------------|--------------|---------------| 
 
 
                                                                  
--7----7-9-7-9-7----7-------------|------------------7----------| 
----10-----------10---10-9-7----7-|-----------------------------| 
-----------------------------10---|--10-9-8-7-8-9-10---10-9-8-7-| 
----------------------------------|-----------------------------| 
----------------------------------|-----------------------------| 
----------------------------------|-----------------------------| 
----------------------------------|-----------------------------| 
 
 
                                                                           
----------------|------------------|----------------------------14-16-17-| 
--10~-----------|--15b-------15b---|--12------12--15--12-----17----------| 
----------------|------------------|------14-----------------------------| 
----------------|------------------|-------------------------------------| 
----------------|------------------|-------------------------------------| 
----------------|------------------|-------------------------------------| 
----------------|------------------|-------------------------------------| 
 
 
                                                                                 
--19-17-16-14------------------------------------------------------------------- 
--------------18-15-14-15-14---------------------------------------------------- 
-----------------------------17-16-14------------------------------------------- 
--------------------------------------14-16-14-12-14-12-11-12-11-12-11---------- 
-----------------------------------------------------------------------14-12-14- 
-------------------------------------------------------------------------------- 
-------------------------------------------------------------------------------- 
 
 
                                           
-----------------------------------------| 
-----------------------------------------| 
-----------------------------------------| 
-----------------------------------------| 
--11-12-11-9-11-9------------------------| 
------------------12-10-9-10-9-7-9-7~----| 
-----------------------------------------| 
 
 
                                                                               
-----12-16-12-17-12-16-12----16----12-|--------------------------------------| 
--15----------------------15----15----|--15-12----12-------------------------| 
--------------------------------------|--------15----15-14-13-12-------14-13-| 
--------------------------------------|--------------------------14-12-------| 
--------------------------------------|--------------------------------------| 
--------------------------------------|--------------------------------------| 
--------------------------------------|--------------------------------------| 
 
 
                                                                         
--------------------------------------|--------------------------------| 
--------------------------------------|--------------------------------| 
--------------------------------------|-----------13-------------------| 
--14-12-------14-12-------------------|--------------------------------| 
--------14-12-------14-13-12-11----11-|--12-13-14----14-13-12-11-------| 
--------------------------------12----|--------------------------12~---| 
--------------------------------------|--------------------------------| 
 
 
                                                          
--------------------------------------------------------| 
--------------------------------------------------------| 
--------------------------------------------------------| 
--------------------------------------------------------| 
-----------10----------------12----------------10-12-11-| 
--10-11-12----12-11-10-11-12----12-11-10-11-12----------| 
--------------------------------------------------------| 
 
 
                                                          
--------------------------------------------------------| 
--------------------------------------------------------| 
--------------------------------------------------------| 
-----------12----------------14----------------12-14-13-| 
--12-13-14----14-13-12-13-14----14-13-12-13-14----------| 
--------------------------------------------------------| 
--------------------------------------------------------| 
 
 
                                                          
--------------------------------------------------------| 
--------------------------------------------------------| 
-----------12----------------14----------------12-14-13-| 
--12-13-14----14-13-12-13-14----14-13-12-13-14----------| 
--------------------------------------------------------| 
--------------------------------------------------------| 
--------------------------------------------------------| 
 
 
                                                          
-----------------------------12-------------------------| 
-----------12----------------12----------------12-14-15-| 
--12-13-14----14-13-12-13-14----14-13-12-13-14----------| 
--------------------------------------------------------| 
--------------------------------------------------------| 
--------------------------------------------------------| 
--------------------------------------------------------| 
 
 
                                                          
--------------------------------------------------------| 
--17-15-12----12-15-17-15-12----12-15-17-15-12----12-15-| 
-----------14----------------14----------------14-------| 
--------------------------------------------------------| 
--------------------------------------------------------| 
--------------------------------------------------------| 
--------------------------------------------------------| 
 
 
                                                             
-----------------------------------------------------------| 
--16-15-12----12-15-16-15-12----12-15-16-15-12----12-15-16-| 
-----------14----------------14----------------14----------| 
-----------------------------------------------------------| 
-----------------------------------------------------------| 
-----------------------------------------------------------| 
-----------------------------------------------------------| 
 
 
                                                                
--------------------------------------------------------------| 
--14-12----12-14-15-14-12----12-14-15-14-12----14-15-14-13-15-| 
--------14----------------14----------------14----------------| 
--------------------------------------------------------------| 
--------------------------------------------------------------| 
--------------------------------------------------------------| 
--------------------------------------------------------------| 
 
 
                                                                            
--------------------------------------------------------------------------| 
--17-15-14-16-17-16-15-17-18-17-16-17-19-17-16-18-20-18-16-19-20-19-17-18-| 
--------------------------------------------------------------------------| 
--------------------------------------------------------------------------| 
--------------------------------------------------------------------------| 
--------------------------------------------------------------------------| 
--------------------------------------------------------------------------| 
 
 
                                                                
--------------------------------------------------------------| 
--19-21-22-21-19----19-21-22-21-19----19-21-22-21-19----19-21-| 
-----------------22----------------22----------------22-------| 
--------------------------------------------------------------| 
--------------------------------------------------------------| 
--------------------------------------------------------------| 
--------------------------------------------------------------| 
 
 
                                                                
--------------------------------------------------------------| 
--24-21-19----19-21-24-21-19----19-21-24-21-19----19-21-24-21-| 
-----------22----------------22----------------22-------------| 
--------------------------------------------------------------| 
--------------------------------------------------------------| 
--------------------------------------------------------------| 
--------------------------------------------------------------| 
 
 
                                                                
--------------------------------------------------------------| 
--19-18-15----15-18-19-18-15----15-18-19-18-15----15-18-19-18-| 
-----------16----------------16----------------16-------------| 
--------------------------------------------------------------| 
--------------------------------------------------------------| 
--------------------------------------------------------------| 
--------------------------------------------------------------| 
 
 
                                              
--------------------------------------------| 
--15----------------------------------------| 
-----16-16-14----------14-16----------------| 
--------------16-14-16-------14-12----------| 
-----------------------------------14~------| 
--------------------------------------------| 
--------------------------------------------| 
 
 
                                                                                
---------------------------------------|------------------------------5-9-5---| 
------6-7-6-------6-9-6-------6-10-6---|------6-7-6-------6-9-6---------------| 
--6-7-------7-6-7-------7-6-7--------7-|--6-7-------7-6-7-------7-6-7-------7-| 
---------------------------------------|--------------------------------------| 
---------------------------------------|--------------------------------------| 
---------------------------------------|--------------------------------------| 
---------------------------------------|--------------------------------------| 
 
 
                                                                      
---------------------------------------|----------------------------| 
------6-7-6-------6-9-6-------6-10-6---|--7-6---6-------------------| 
--6-7-------7-6-7-------7-6-7--------7-|------9---9-8-7-6----6------| 
---------------------------------------|------------------10---10-7-| 
---------------------------------------|----------------------------| 
---------------------------------------|----------------------------| 
---------------------------------------|----------------------------| 
 
 
                                                                            
-----------------|-------------------|-------------------|----------------| 
-----------------|-------------------|-------------------|----------------| 
-----------------|-------------------|-------------------|----------------| 
--9~---------7-9-|--7~---------7-9-7-|--6~---------------|----------------| 
-----------------|-------------------|-------7--5--7/-9--|--7~-------7/---| 
-----------------|-------------------|-------------------|----------------| 
-----------------|-------------------|-------------------|----------------| 
 
 
                                                                    
--12h10h7---------12h10h7---------12h10h7---------12h10h7---------| 
----------12h10h7---------12h10h7---------12h10h7---------12h10h7-| 
------------------------------------------------------------------| 
------------------------------------------------------------------| 
------------------------------------------------------------------| 
------------------------------------------------------------------| 
------------------------------------------------------------------| 
 
 
                                                                    
--12h10h7---------12h10h7---------12h10h7---------12h10h7---------| 
----------12h10h7---------12h10h7---------12h10h7---------12h10h7-| 
------------------------------------------------------------------| 
------------------------------------------------------------------| 
------------------------------------------------------------------| 
------------------------------------------------------------------| 
------------------------------------------------------------------| 
 
 
                                                                       
--12h10h7-14h10h7-12h10h7---------12h10h7-14-10-7-12-10-7---------12-| 
--------------------------12h10h7-------------------------12-10-7----| 
---------------------------------------------------------------------| 
---------------------------------------------------------------------| 
---------------------------------------------------------------------| 
---------------------------------------------------------------------| 
---------------------------------------------------------------------| 
 
 
                                                                       
--10-7-13-10-7-12-10-7---------12-10-7-13-10-7-12-10-7---------12-10-| 
-----------------------12-10-7-------------------------12-10-7-------| 
---------------------------------------------------------------------| 
---------------------------------------------------------------------| 
---------------------------------------------------------------------| 
---------------------------------------------------------------------| 
---------------------------------------------------------------------| 
 
 
                                                              
--7---------------------------------------------------------| 
----12-10-7--------12-10-7----------------------------------| 
------------11-9-7---------11-9-7--------11-9-7-------------| 
----------------------------------11-9-7--------11-9-7------| 
-------------------------------------------------------12-9-| 
------------------------------------------------------------| 
------------------------------------------------------------| 
 
 
                                                              
------------------------------------------------------------| 
------------------------------------------------------------| 
-----------------------------------------------------11-9-7-| 
----11-9-7----------------------11-9-7--------11-9-7--------| 
--7--------12-9-7--------12-9-7--------12-9-7---------------| 
------------------12-9-7------------------------------------| 
------------------------------------------------------------| 
 
 
                                                                   
-----------------------------------------------------------------| 
-----------------------------------------------------------------| 
---------11-9-7--------11-9-7---------------11-9-7--------11-9-7-| 
--11-9-7--------11-9-7--------11-9-7-11-9-7--------11-9-7--------| 
-----------------------------------------------------------------| 
-----------------------------------------------------------------| 
-----------------------------------------------------------------| 
 
 
                                                                  
----------12-10-7-----------------------------------------------| 
--12-10-7---------12-10-7--------12-10-7------------------------| 
--------------------------11-9-7---------11-9-7-----------------| 
------------------------------------------------11-9-7----------| 
-------------------------------------------------------11-9-7---| 
--------------------------------------------------------------9-| 
----------------------------------------------------------------| 
 
 
                                                                      
-------------------|--------------------------------|---------------| 
-------------------|--10----10----10----------------|---------------| 
----------x-2/--11-|-----11----11----11-9-7---9---7-|--9~-----------| 
----------x--------|------------------------9---9---|---------------| 
-------------------|--------------------------------|---------------| 
--7~---------------|--------------------------------|---------------| 
-------------------|--------------------------------|---------------| 
 
 
                                                                   
------------------|---------------------|------------------------| 
------------------|---------------10-12-|--12r-------10----12----| 
--9b--9b--9b--9b--|--7~-------11--------|---------------11----11-| 
------------------|---------------------|------------------------| 
------------------|---------------------|------------------------| 
------------------|---------------------|------------------------| 
------------------|---------------------|------------------------| 
 
 
                                                                        
-----------------------12-14-14-12----12-|-----------------12-17r-----| 
--10-12-15-12-15-12-15-------------15----|--15-14-12-14-15------------| 
-----------------------------------------|----------------------------| 
-----------------------------------------|----------------------------| 
-----------------------------------------|----------------------------| 
-----------------------------------------|----------------------------| 
-----------------------------------------|----------------------------| 
 
 
                                                                 
--17~---------14-15-16-17-|--14--------------------------------| 
----------15/-------------|------15----------------------------| 
--------------------------|---------16-14----14/12----12/11----| 
--------------------------|---------------16-------14-------14-| 
--------------------------|------------------------------------| 
--------------------------|------------------------------------| 
--------------------------|------------------------------------| 
 
 
                                                                            
--------------------------|---------------------------|-------------------| 
--------------------------|---------------------------|-------------------| 
--11-14-12~-----9-12-11-0-|--7-11-9-0-6-9-7-0-4-7-6-0-|--2-6-4~-------6-7-| 
--------------------------|---------------------------|-------------------| 
--------------------------|---------------------------|-------------------| 
--------------------------|---------------------------|-------------------| 
--------------------------|---------------------------|-------------------| 
 
 
                                                           
------------------7--|--9-7-9-10-12-10-14-12-14-15-17-14-| 
--------5--8--10-----|-----------------------------------| 
--6--7---------------|-----------------------------------| 
---------------------|-----------------------------------| 
---------------------|-----------------------------------| 
---------------------|-----------------------------------| 
---------------------|-----------------------------------| 
 
 
                                                                               
--15-14-12-17-15-14-19-17-15-21-19-17-22-21-19-24-22-21-|--22~-----22~---24--| 
--------------------------------------------------------|--------------------| 
--------------------------------------------------------|--------------------| 
--------------------------------------------------------|--------------------| 
--------------------------------------------------------|--------------------| 
--------------------------------------------------------|--------------------| 
--------------------------------------------------------|--------------------| 
 
 
                                                        
--21~-----21~---22--|--19~-------14-19-22-19-14-------| 
--------------------|---------------------------15-14-| 
--------------------|---------------------------------| 
--------------------|---------------------------------| 
--------------------|---------------------------------| 
--------------------|---------------------------------| 
--------------------|---------------------------------| 
 
 
                                                                         
-----14-19-22-19-14----------14-19-22-19-14----------14-19-22-19-14----| 
--15----------------15-14-15----------------15-14-15----------------15-| 
-----------------------------------------------------------------------| 
-----------------------------------------------------------------------| 
-----------------------------------------------------------------------| 
-----------------------------------------------------------------------| 
-----------------------------------------------------------------------| 
 
 
                                                                                
----------------------------|------------17------|----------------------------| 
--14------------------------|--15-17~------------|---------17r-15-------------| 
-----16-14-16~--------14-16-|--------------------|----------------16-14-16-14-| 
-------------------7/-------|--------------------|----------------------------| 
----------------------------|--------------------|----------------------------| 
----------------------------|--------------------|----------------------------| 
----------------------------|--------------------|----------------------------| 
 
 
                                                                        
------------------------------|------------------|--------------------| 
------------------------------|--7--------8/-12/-|--11~-------12/-17--| 
------------------------------|------------------|--------------------| 
--14r--12-14-12---------------|--4--------5/-9/--|--8~--------9/--14--| 
----------------14-12-14~-----|------------------|--------------------| 
------------------------------|------------------|--------------------| 
------------------------------|------------------|--------------------| 
 
 
                                                             
----------------------|----------------||------------------| 
---15/14------15/-20/-|--19------------||------------------| 
----------------------|----------------||------------------| 
---12/11------12/-17/-|--16------------||------------------| 
----------------------|----------------||------------------| 
----------------------|----------------||--2-2--2--2-3-----| 
----------------------|----------------||---------------5--| 
 
 
                                                               
------------------------|-------------------|---------------|| 
------------------------|-------------------|---------------|| 
------------------------|-------------------|---------------|| 
------------------------|-------------------|----------2-5--|| 
----------------2-5-4---|---------------2-1-|--------2------|| 
--2-2--2----2-3-------3-|--2-2--2--2-3------|----2-3--------|| 
----------5-------------|-------------------|--5------------|| 
 
 
                                                                 
------------------|------------------------|-------------------| 
------------------|------------------------|-------------------| 
------------------|------------------------|-------------------| 
------------------|------------------------|-------------------| 
------------------|----------------4-7-6---|---------------4-3-| 
--4-4--4--4-5-----|--4-4--4----4-5-------5-|--4-4--4--4-5------| 
---------------7--|----------7-------------|-------------------| 
 
 
                                                         
---------------||--------------------------------------| 
---------------||--------------------------------------| 
---------------||--------------------------------------| 
----------4-7--||--------------------------------------| 
--------4------||--11-12-11----------14-12-11-15-14-12-| 
----4-5--------||-----------14-13-11-------------------| 
--7------------||--------------------------------------| 
 
 
                                                                               
--------------------------------------|--------------------------------------| 
--------------------------------------|--------------------------------------| 
--------------------------------------|--13-14-13----------16-14-13-17-16-14-| 
--12-13-12----------15-13-12-16-15-13-|-----------16-15-13-------------------| 
-----------15-14-12-------------------|--------------------------------------| 
--------------------------------------|--------------------------------------| 
--------------------------------------|--------------------------------------| 
 
 
                                                                             
--------------------------------------||-----------------|-----------------| 
--15-16-15----------18-16-15-19-18-16-||-----------------|-----------------| 
-----------17-16-14-------------------||-----------------|-----------------| 
--------------------------------------||-----------------|-----------------| 
--------------------------------------||--5-5--5---------|--5-5--5---------| 
--------------------------------------||--5-5--5---------|--5-5--5---------| 
--------------------------------------||--3-3--3---------|--3-3--3---------| 
 
 
                                                                          
-----------------|-----------------||----------------||-----------------| 
-----------------|-----------------||----------------||-----------------| 
-----------------|-----------------||----------------||-----------------| 
-----------------|-----------------||----------------||-----------------| 
--5-5--5---------|--3------6-------||--3------8------||--5-5--5---------| 
--5-5--5---------|--3------6-------||--3------8------||--5-5--5---------| 
--3-3--3---------|--1------4-------||--1------6------||--3-3--3---------| 
 
 
                                                                         
-----------------|-----------------|-----------------||----------------| 
-----------------|-----------------|-----------------||----------------| 
-----------------|-----------------|-----------------||----------------| 
-----------------|-----------------|-----------------||----------------| 
--5-5--5---------|--5-5--5---------|--3------6-------||--3------8------| 
--5-5--5---------|--5-5--5---------|--3------6-------||--3------8------| 
--3-3--3---------|--3-3--3---------|--1------4-------||--1------6------| 
 
 
                                                                             
-----------------|-----------------|-------------------|-------------------| 
-----------------|-----------------|-------------------|-------------------| 
-----------------|-----------------|-------------------|-------------------| 
-----------------|-----------------|-------------------|-------------------| 
--5-5--5---------|--5-5--5---------|--5-5--5---5---5---|--5-5--5---5---5---| 
--5-5--5---------|--5-5--5---------|--5-5--5---5---5---|--5-5--5---5---5---| 
--3-3--3---------|--3-3--3---------|--3-3--3---3---3---|--3-3--3---3---3---| 
 
 
                                                                                 
---------------|---------------|---------------|---------------|---------------| 
---------------|---------------|---------------|---------------|---------------| 
---------------|---------------|---------------|---------------|---------------| 
---------------|---------------|---------------|---------------|---------------| 
--9------------|--5------------|--7------------|--4------------|--9------------| 
--7------------|--3------------|--5------------|--2------------|--7------------| 
---------------|---------------|---------------|---------------|---------------| 
 
 
                                                                                 
---------------|---------------|---------------|---------------|---------------| 
---------------|---------------|---------------|---------------|---------------| 
---------------|---------------|---------------|---------------|---------------| 
---------------|---------------|---------------|---------------|---------------| 
--5------------|--7------------|--7------------|--9------------|--5------------| 
--3------------|--5------------|--5------------|--7------------|--3------------| 
---------------|---------------|---------------|---------------|---------------| 
 
 
                                                                                 
---------------|---------------|---------------|---------------|---------------| 
---------------|---------------|---------------|---------------|---------------| 
---------------|---------------|---------------|---------------|---------------| 
---------------|---------------|---------------|---------------|---------------| 
--7------------|--4------------|--9------------|--5------------|--7------------| 
--5------------|--2------------|--7------------|--3------------|--5------------| 
---------------|---------------|---------------|---------------|---------------| 
 
 
                                                                                 
---------------|---------------|---------------|---------------|---------------| 
---------------|---------------|---------------|---------------|---------------| 
---------------|---------------|---------------|---------------|---------------| 
---------------|---------------|---------------|---------------|---------------| 
--7------------|--9------------|--5------------|--7------------|--4------------| 
--5------------|--7------------|--3------------|--5------------|--2------------| 
---------------|---------------|---------------|---------------|---------------| 
 
 
                                                                   
---------------|---------------|---------------|-----------------| 
---------------|---------------|---------------|-----------------| 
---------------|---------------|---------------|-----------------| 
---------------|---------------|---------------|-----------------| 
--9------------|--5------------|--7------------|--7--------------| 
--7------------|--3------------|--5------------|--5--------------| 
---------------|---------------|---------------|-----------------| 
 
 
                                                                                 
---------------|---------------|---------------|---------------|---------------| 
---------------|---------------|---------------|---------------|---------------| 
---------------|---------------|---------------|---------------|---------------| 
---------------|---------------|---------------|---------------|---------------| 
--9------------|--5------------|--7------------|--4------------|--5------------| 
--7------------|--3------------|--5------------|--2------------|--3------------| 
---------------|---------------|---------------|---------------|---------------| 
 
 
                                                                       
--------------|---------------|----------------|---------------------| 
--------------|---------------|----------------|---------------------| 
--------------|---------------|----------------|---------------------| 
--------------|---------------|----------------|---------------------| 
--------------|--2------------|--4-------------|---------------------| 
--------------|--0------------|--2------5------|--4-4--4--4-5--4--2--| 
--------------|---------------|---------3------|--2-2--2--2-3--2--0--| 
 
 
                                                                         
------------------------|---------------------|------------------------| 
------------------------|---------------------|------------------------| 
------------------------|---------------------|------------------------| 
------------------------|---------------------|------------------------| 
------------------------|---------------------|------------2-----1-----| 
--4-4--4----5/7---5/7---|--4-4--4--4-5--4--2--|--4-4--4--4---3-----2---| 
--2-2--2--0-3/5-0-3/5-0-|--2-2--2--2-3--2--0--|--2-2--2--------4-----3-| 
 
 
                                                                      
---------------------|------------------------|---------------------| 
---------------------|------------------------|---------------------| 
---------------------|------------------------|---------------------| 
---------------------|------------------------|---------------------| 
---------------------|------------------------|---------------------| 
--4-4--4--4-5--4--2--|--4-4--4----5/7---5/7---|--4-4--4--4-5--4--2--| 
--2-2--2--2-3--2--0--|--2-2--2--0-3/5-0-3/5-0-|--2-2--2--2-3--2--0--| 
 
 
                                                                                 
------------------------|--------------------------|---------------------------| 
------------------------|--------------------------|---------------------------| 
------------------------|--------------------------|---------------------------| 
------------------------|--------------------------|---------------------------| 
------------2-----1-----|--------------------------|---------------------------| 
--4-4--4--4---3-----2---|--------5-------6-------7-|--------8-------9-------10-| 
--2-2--2--------4-----3-|--0-2-3---0-3-4---0-4-5---|--0-5-6---0-6-7---0-7-8----| 
 
 
                                                                 
----------------------------|----------------------------------| 
----------------------------|----------------------------------| 
----------------------------|----------------------------------| 
----------------------------|----------------------------------| 
----------------------------|----------------------------------| 
--------9-------10-------11-|---------12---------13---------14-| 
--0-6-7---0-7-8----0-8-9----|--0-9-10----0-10-11----0-11-12----| 
 
 
                                                                         
-----------------------------------|-----------------------------------| 
-----------------------------------|-----------------------------------| 
-----------------------------------|-----------------------------------| 
-----------------------------------|-----------------------------------| 
-----------------------------------|-----------------------------------| 
----------13---------14---------15-|----------16---------17---------18-| 
--0-10-11----0-11-12----0-12-13----|--0-13-14----0-14-15----0-15-16----| 
 
 
                                                                         
-----------------------------------|-----------------------------------| 
-----------------------------------|-----------------------------------| 
-----------------------------------|-----------------------------------| 
-----------------------------------|-----------------------------------| 
-----------------------------------|-----------------------------------| 
----------17---------18---------19-|----------20---------21---------22-| 
--0-14-15----0-15-16----0-16-17----|--0-17-18----0-18-19----0-19-20----| 
 
 
                                                      
|---------------------||---------------------------|| 
|---------------------||---------------------------|| 
|---------------------||---------------------------|| 
|---------------------||---------------------------|| 
|---------------------||---------------------------|| 
|--5--4--2--5--4--2---||---------------------------|| 
|--3--2--0--3--2--0---||--3-2-0-3-2-0-3-2-0-3-2-0--|| 
 
 
                                                              3x                 
---------------------------------------||---------------------||--3------------| 
---------------------------------------||---------------------||--3------------| 
---------------------------------------||---------------------||--0------------| 
---------------------------------------||---------------------||--0------------| 
---------------------------------------||--4-4--4---4-4--4----||--x------------| 
---------------------------------------||--4-4--4---4-4--4----||--3------------| 
--3-2-0-3-2-0-3-2-0-3-2-0-3-2-0-3-2-0--||--2-2--2---2-2--2----||---------------| 
 
 
                                    
--------------|------------------|| 
--------------|------------------|| 
--------------|------------------|| 
--------------|------------------|| 
--------------|--4-4--4---4/-----|| 
--------------|--4-4--4---4/-----|| 
--------------|--2-2--2---2/-----|| 
 

Calificar esta versión:
Aviso: Este fichero es trabajo propio de su transcriptor y representa su interpretación personal de la canción. El material contenido en esta página es para exclusivo uso privado, por lo que se prohibe su reproducción o retransmisión, así como su uso para fines comerciales.