Glasgow Kiss, John Petrucci (tablatura)

Autor: eric_slayer(696) | 26344 visualizaciones

Guitar 1 
                                            
E||---------------------------------------| 
B||-----------7--------10--7--9--7--------| 
G||--------9-----9------------------9-----| 
D||-----9-----------9------------------9--| 
A||--7------------------------------------| 
E||---------------------------------------| 
 
 
                                                                                
--------------------------------------|---------------------------------------| 
-----------7--------------------------|-----------7--------10--7--9--7--------| 
--------9-----9-----7--6-----------6--|--------------9------------------9-----| 
-----9-----------9--------9--7--9-----|--9-----9--------9------------------9--| 
--7-----------------------------------|-----7---------------------------------| 
--------------------------------------|---------------------------------------| 
 
 
                                               
--10--7--9--10h9-7---------------------------| 
--------------------10--7--10-----10-----10--| 
-------------------------------9------7------| 
---------------------------------------------| 
---------------------------------------------| 
---------------------------------------------| 
 
 
                                                                                
---------------------------------------|--------------------------------------| 
-----------7--------10--7--9--7--------|-----------7--------------------------| 
--------9-----9------------------9-----|--------9-----9-----7--6-----------6--| 
-----9-----------9------------------9--|-----9-----------9--------9--7--9-----| 
--7------------------------------------|--7-----------------------------------| 
---------------------------------------|--------------------------------------| 
 
 
                                         
---------------------------------------| 
-----------7--------10--7--9--7--------| 
--------------9------------------9-----| 
--9-----9--------9------------------9--| 
-----7---------------------------------| 
---------------------------------------| 
 
 
                                           
--------------------7--10--7--12--9------| 
-----------------8-------------------10--| 
-----------4/-7--------------------------| 
--------7--------------------------------| 
-----5-----------------------------------| 
--3--------------------------------------| 
 
 
                                                      
|---------------14----------17--14--16--14----------| 
|-----------17------17----------------------17------| 
|*------16--------------16----------------------16--| 
|*--14----------------------------------------------| 
|---------------------------------------------------| 
|---------------------------------------------------| 
 
 
                                                    
--------------14----------------------------------| 
----------17------17------15--14--------------14--| 
------16--------------16----------16--14--16------| 
--14----------------------------------------------| 
--------------------------------------------------| 
--------------------------------------------------| 
 
 
                                                    
--------------14----------17--14--16--14----------| 
------------------17----------------------17------| 
--16------16----------16----------------------16--| 
------14------------------------------------------| 
--------------------------------------------------| 
--------------------------------------------------| 
 
 
                                                        
--22--19--21--22h21-19-------------------------------|| 
------------------------22--19--22------22------22---|| 
------------------------------------21------19------*|| 
----------------------------------------------------*|| 
-----------------------------------------------------|| 
-----------------------------------------------------|| 
 
 
                                                    
--------------14----------17--14--16--14----------| 
------------------17----------------------17------| 
--16------16----------16----------------------16--| 
------14------------------------------------------| 
--------------------------------------------------| 
--------------------------------------------------| 
 
 
                                                    
--------------------------19--22--19--24--21------| 
----------------------20----------------------22--| 
--------------16/-19------------------------------| 
----------19--------------------------------------| 
------17------------------------------------------| 
--15----------------------------------------------| 
 
 
                                                                          
----------------------------------|-------------------------------------| 
----------------------------------|-------------------------------------| 
--13----14----16----14~-----------|----------13--14--16----14----13/-9--| 
----------------------------------|-------------------------------------| 
----------------------------------|-------------------------------------| 
----------------------------------|-------------------------------------| 
 
 
                                                           
------------------------------|--------------------------| 
------------------------------|--------------------------| 
--11----------7--7~-----------|--------------------------| 
------------------------------|--------------------------| 
------------------------------|--------------------------| 
------------------------------|--------------------------| 
 
 
                                                                          
----------------------------------|-------------------------------------| 
----------------------------------|-------------------------------------| 
--11----13----14----13~-----------|----------11--13--14----13----11/-7--| 
----------------------------------|-------------------------------------| 
----------------------------------|-------------------------------------| 
----------------------------------|-------------------------------------| 
 
 
                                                                           
-------------------|------------------|----------------------------------| 
-------------------|------------------|----------------------------------| 
--9~---------------|------------------|--13----14----16----14~-----------| 
-------------------|------------------|----------------------------------| 
-------------------|------------------|----------------------------------| 
-------------------|------------------|----------------------------------| 
 
 
                                                                         
--------------------------------------|--------------------------------| 
----------12--14--15~---14------------|--------------------------------| 
------------------------------16--14--|--16--------11----11~-----------| 
--------------------------------------|--------------------------------| 
--------------------------------------|--------------------------------| 
--------------------------------------|--------------------------------| 
 
 
                                                               
--------------------------|----------------------------------| 
--------------------------|--------------14------------------| 
--------------------------|--14----16----------16~-----------| 
--------------------------|----------------------------------| 
--------------------------|----------------------------------| 
--------------------------|----------------------------------| 
 
 
                                                                       
------------------------------------|--------------------------------| 
------------------14----------------|--------------------------------| 
----------14--16--------16----14----|--16--------12----12~-----------| 
------------------------------------|--------------------------------| 
------------------------------------|--------------------------------| 
------------------------------------|--------------------------------| 
 
 
                                                                 
----------------------------|----------------------------------| 
----------------------------|--12----14----15----14b-----------| 
------------------------11--|----------------------------------| 
----------------------------|----------------------------------| 
----------------------------|----------------------------------| 
----------------------------|----------------------------------| 
 
 
                                                                       
--------------------------------14------|----------------------------| 
----------------15------17--------------|--17~-----------------------| 
------------14------14------14------14--|----------------------------| 
----------------------------------------|----------------------------| 
----------------------------------------|----------------------------| 
----------------------------------------|----------------------------| 
 
 
                                                                       
--------------------------------16------|----------------------------| 
----------------17------19--------------|--21r-----------------------| 
------------16------16------16------16--|----------------------------| 
----------------------------------------|----------------------------| 
----------------------------------------|----------------------------| 
----------------------------------------|----------------------------| 
 
 
                                                                         
--------------16--17----16------------|------------19----19~-----------| 
----------19------------------19--17--|--19----------------------------| 
--------------------------------------|--------------------------------| 
--------------------------------------|--------------------------------| 
--------------------------------------|--------------------------------| 
--------------------------------------|--------------------------------| 
 
 
                                                                                 
------------------|----------------------------|--0----------------------------| 
------------------|---------------5------------|-------------------------------| 
------------------|---------------4------------|---------------2------2--2--2--| 
------------------|--2------------2------------|---------------2------2--2--2--| 
------------------|--2-------------------------|---------------0------0--0--0--| 
------------------|--0-------------------------|-------------------------------| 
 
 
                                                              
---------------0------------|-------------------------------| 
---------------5------------|-------------------------------| 
---------------4------------|---------------7------7--7--7--| 
--2------------2------------|--5------------7------7--7--7--| 
--2-------------------------|--5------------5------5--5--5--| 
--0-------------------------|--3----------------------------| 
 
 
                                                             
---------------0------------|------------------------------| 
---------------5------------|------------------------------| 
---------------4------------|--------------2------2--2--2--| 
--2------------2------------|--------------2------2--2--2--| 
--2-------------------------|--------------0------0--0--0--| 
--0-------------------------|------------------------------| 
 
 
                                                           
---------------0------------|----------------------------| 
---------------5------------|----------------------------| 
---------------4------------|---------------7------------| 
--2------------2------------|--5------------7------------| 
--2-------------------------|--5------------5------------| 
--0-------------------------|--3-------------------------| 
 
 
                                                                           
--16----17----19----17~-----------|----------16--17--19----17----16------| 
----------------------------------|----------------------------------17--| 
----------------------------------|--------------------------------------| 
----------------------------------|--------------------------------------| 
----------------------------------|--------------------------------------| 
----------------------------------|--------------------------------------| 
 
 
                                                                   
--------------------------------------|--------------------------| 
--19------19/---15-15-15--15~---------|--------------------------| 
--------------------------------------|--------------------------| 
--------------------------------------|--------------------------| 
--------------------------------------|--------------------------| 
--------------------------------------|--------------------------| 
 
 
                                                                             
--14----16----17----16~-----------|----------14--16--17--0--16--0----------| 
----------------------------------|--------------------------------19/-15--| 
----------------------------------|----------------------------------------| 
----------------------------------|----------------------------------------| 
----------------------------------|----------------------------------------| 
----------------------------------|----------------------------------------| 
 
 
                                          
----------------------------19------17--| 
--17~---------------17------------------| 
----------------16------16------16------| 
----------------------------------------| 
----------------------------------------| 
----------------------------------------| 
 
 
                                                  
----16--------------16--------------19--16------| 
--------19--17--19------17------17----------17--| 
----------------------------16------------------| 
------------------------------------------------| 
------------------------------------------------| 
------------------------------------------------| 
 
 
                                                                           
--16----17----19----17~-----------|----------19--21--22----21----19/-17--| 
----------------------------------|--------------------------------------| 
----------------------------------|--------------------------------------| 
----------------------------------|--------------------------------------| 
----------------------------------|--------------------------------------| 
----------------------------------|--------------------------------------| 
 
 
                                                              
--19--------14----14~-----------|----------------------7/---| 
--------------------------------|---------------------------| 
--------------------------------|---------------------------| 
--------------------------------|---------------------------| 
--------------------------------|---------------------------| 
--------------------------------|---------------------------| 
 
 
                                                                         
--17----19----21----19b-----------|----------17--19--21----19----17----| 
----------------------------------|------------------------------------| 
----------------------------------|------------------------------------| 
----------------------------------|------------------------------------| 
----------------------------------|------------------------------------| 
----------------------------------|------------------------------------| 
 
 
                                                               
--19--------21----19------------|--19------------------------| 
--------------------------------|----------------------------| 
--------------------------------|----------------------------| 
--------------------------------|----------------------------| 
--------------------------------|----------------------------| 
--------------------------------|----------------------------| 
 
 
                                                  
--------------14------12------------------------| 
------12--------------------15--14--12--14--15--| 
--11------11------11----------------------------| 
------------------------------------------------| 
------------------------------------------------| 
------------------------------------------------| 
 
 
                                                   
--------------14h-10------12h-9------17h-12------| 
--12------12----------12---------10----------14--| 
------11-----------------------------------------| 
-------------------------------------------------| 
-------------------------------------------------| 
-------------------------------------------------| 
 
 
                                                  
----------------------17----14--------------14--| 
------15------17----------------17--15--17------| 
--14------14------14----------------------------| 
------------------------------------------------| 
------------------------------------------------| 
------------------------------------------------| 
 
 
                                                    
--------------17h-14------16h-12------19h-16------| 
--15------15----------15----------12----------17--| 
--------------------------------------------------| 
--------------------------------------------------| 
------12------------------------------------------| 
--------------------------------------------------| 
 
 
                                                  
--------------21------19----17--------------17--| 
------19------------------------21--19--21------| 
--18------18------18----------------------------| 
------------------------------------------------| 
------------------------------------------------| 
------------------------------------------------| 
 
 
                                                                    
--------------21h-17------19h-16------------------------------16--| 
--19------19----------19----------17-----------------------17-----| 
------18------------------------------16----------------16--------| 
-----------------------------------------18----18----18-----------| 
--------------------------------------------19----19--------------| 
------------------------------------------------------------------| 
 
 
                                       
--19---------------------------------| 
----------------17h-0--19h-0--17h-0--| 
-------------------------------------| 
-------------------------------------| 
-------------------------------------| 
-------------------------------------| 
 
 
                                            
------------------------------------------| 
--16h-0--14h-0--12h-0--10h-0--9h-0--7h-0--| 
------------------------------------------| 
------------------------------------------| 
------------------------------------------| 
------------------------------------------| 
 
 
                                                      
|---------------14----------17--14--16--14----------| 
|-----------17------17----------------------17------| 
|*------16--------------16----------------------16--| 
|*--14----------------------------------------------| 
|---------------------------------------------------| 
|---------------------------------------------------| 
 
 
                                                    
--------------14----------------------------------| 
----------17------17------15--14--------------14--| 
------16--------------16----------16--14--16------| 
--14----------------------------------------------| 
--------------------------------------------------| 
--------------------------------------------------| 
 
 
                                                    
--------------14----------17--14--16--14----------| 
------------------17----------------------17------| 
--16------16----------16----------------------16--| 
------14------------------------------------------| 
--------------------------------------------------| 
--------------------------------------------------| 
 
 
                                                        
--22--19--21--22h21-19-------------------------------|| 
------------------------22--19--22------22------22---|| 
------------------------------------21------19------*|| 
----------------------------------------------------*|| 
-----------------------------------------------------|| 
-----------------------------------------------------|| 
 
 
                                                    
--------------------------19--22--19--24--21------| 
----------------------20----------------------22--| 
--------------16/-19------------------------------| 
----------19--------------------------------------| 
------17------------------------------------------| 
--15----------------------------------------------| 
 
 
                                                                  
-----7--------7--9--5h7h5-4-----|-----7-------------------------| 
--------5--7-----------------7--|--------5--7--4--5--4h5h4------| 
--4-----------------------------|--4-----------------------6----| 
--------------------------------|----------------------------7--| 
--------------------------------|-------------------------------| 
--------------------------------|-------------------------------| 
 
 
                                                                
-----7--------7--9--5h7h5-4-----|-----------------------------| 
--------5--7-----------------7--|--5--4-----------------------| 
--4-----------------------------|--------6--4-----------------| 
--------------------------------|--------------7--6--4--6--7--| 
--------------------------------|-----------------------------| 
--------------------------------|-----------------------------| 
 
 
                                                                  
-----7--------7--9--5h7h5-4-----|-----7-------------------------| 
--------5--7-----------------7--|--------5--7--4--5--4h5h4------| 
--4-----------------------------|--4-----------------------6----| 
--------------------------------|----------------------------7--| 
--------------------------------|-------------------------------| 
--------------------------------|-------------------------------| 
 
 
                                                                
-----7--------7--9--5h7h5-4-----|--7--4--5--4-----------------| 
--------5--7-----------------7--|--------------7--5--4--5--7--| 
--4-----------------------------|-----------------------------| 
--------------------------------|-----------------------------| 
--------------------------------|-----------------------------| 
--------------------------------|-----------------------------| 
 
 
                                                                    
|------7--------7--9--5h7h5-4-----|-----7-------------------------| 
|---------5--7-----------------7--|--------5--7--4--5--4h5h4------| 
|*--4-----------------------------|--4-----------------------6----| 
|*--------------------------------|----------------------------7--| 
|---------------------------------|-------------------------------| 
|---------------------------------|-------------------------------| 
 
 
                                                                
-----7--------7--9--5h7h5-4-----|-----------------------------| 
--------5--7-----------------7--|--5--4-----------------------| 
--4-----------------------------|--------6--4-----------------| 
--------------------------------|--------------7--6--4--6--7--| 
--------------------------------|-----------------------------| 
--------------------------------|-----------------------------| 
 
 
                                                                  
-----7--------7--9--5h7h5-4-----|-----7-------------------------| 
--------5--7-----------------7--|--------5--7--4--5--4h5h4------| 
--4-----------------------------|--4-----------------------6----| 
--------------------------------|----------------------------7--| 
--------------------------------|-------------------------------| 
--------------------------------|-------------------------------| 
 
 
                                                                  
-----7--------7--9--5h7h5-4-----|--7--4--5--4------------------|| 
--------5--7-----------------7--|--------------7--5--4--5--7---|| 
--4-----------------------------|-----------------------------*|| 
--------------------------------|-----------------------------*|| 
--------------------------------|------------------------------|| 
--------------------------------|------------------------------|| 
 
 
                                                                  
-----7--------7--9--5h7h5-4-----|-----7-------------------------| 
--------5--7-----------------7--|--------5--7--4--5--4h5h4------| 
--4-----------------------------|--4-----------------------6----| 
--------------------------------|----------------------------7--| 
--------------------------------|-------------------------------| 
--------------------------------|-------------------------------| 
 
 
                                                                  
-----7--------7--9--5h7h5-4-----|-----7-------------------------| 
--------5--7-----------------7--|--------5--7--4--5--4h5h4------| 
--4-----------------------------|--4-----------------------6----| 
--------------------------------|----------------------------7--| 
--------------------------------|-------------------------------| 
--------------------------------|-------------------------------| 
 
 
                                                                              
-----7--------7--9--5h7h5-4----------------|-----7--------7--9--5h7h5-4-----| 
--------5--7-----------------7--4h5h4------|--------5--7-----------------7--| 
--4-----------------------------------6----|--4-----------------------------| 
----------------------------------------7--|--------------------------------| 
-------------------------------------------|--------------------------------| 
-------------------------------------------|--------------------------------| 
 
 
                                                                  
-----7-------------------------|-----7--------7--9--5h7h5-4-----| 
--------5--7--4--5--4h5h4------|--------5--7-----------------7--| 
--4-----------------------6----|--4-----------------------------| 
----------------------------7--|--------------------------------| 
-------------------------------|--------------------------------| 
-------------------------------|--------------------------------| 
 
 
                                                                              
-----7--------7--9--5h7h5-4-----|-----7--------7--9--5h7h5-4----------------| 
--------5--7-----------------7--|--------5--7-----------------7--4h5h4------| 
--4-----------------------------|--4-----------------------------------6----| 
--------------------------------|----------------------------------------7--| 
--------------------------------|-------------------------------------------| 
--------------------------------|-------------------------------------------| 
 
 
                                                                             
------------------|------------------|------------------|------------------| 
------------------|------------------|------------------|------------------| 
------------------|------------------|------------------|------------------| 
------------------|------------------|------------------|------------------| 
------------------|------------------|------------------|------------------| 
------------------|------------------|------------------|------------------| 
 
 
                                                                             
------------------|------------------|------------------|------------------| 
------------------|------------------|------------------|------------------| 
------------------|------------------|------------------|------------------| 
------------------|------------------|------------------|------------------| 
------------------|------------------|------------------|------------------| 
------------------|------------------|------------------|------------------| 
 
 
                                                                 
--------------------|-------------------|----------------------| 
--------------------|-------------------|----------------------| 
--9------------8r---|-------------------|------------8----9----| 
--------------------|------------9r-----|--11------------------| 
--------------------|-------------------|----------------------| 
--------------------|-------------------|----------------------| 
 
 
                                                                            
---------------------|------9-9-------------11-|--12----------16----------| 
---------------------|----------------9-9------|--------------------14-12-| 
-----------------8---|--9----------------------|--------------------------| 
--9----------9-------|-------------------------|--------------------------| 
---------------------|-------------------------|--------------------------| 
---------------------|-------------------------|--------------------------| 
 
 
                                                       
--------------------------|--------------------------| 
--14-------17r--16---14---|--16-------19r--17---16---| 
--------------------------|--------------------------| 
--------------------------|--------------------------| 
--------------------------|--------------------------| 
--------------------------|--------------------------| 
 
 
                                         
----------9-----------9-----9------11r-| 
--12b-------12-9----9---12b---12-9-----| 
-----------------11b-------------------| 
---------------------------------------| 
---------------------------------------| 
---------------------------------------| 
 
 
                                                                             
---------------------------------------------------------------------------| 
-------12h9----------------------------------------------------------------| 
------------11h9h8h9h11h9h8------------------------------------------------| 
----------------------------11h9h7--------11h9h7---------------9h7h6-------| 
-----------------------------------11h9h7--------11h9h7-11h9h7-------9h7h6-| 
---------------------------------------------------------------------------| 
 
 
                                                   
----------------------------------------------14-| 
---------------------------------14-----16-17----| 
---------------------------13-16----13r----------| 
---------------------11-14-----------------------| 
--7~-----------11-14-----------------------------| 
----------9-12-----------------------------------| 
 
 
                                                             
------------------14-16-17-19-16-17-14-16h0-14h0-12h0-11h0-| 
--16~----14-16-17------------------------------------------| 
-----------------------------------------------------------| 
-----------------------------------------------------------| 
-----------------------------------------------------------| 
-----------------------------------------------------------| 
 
 
                                                                            
--9-----21-16-------------16----------------------------------------------| 
--------------17h16----------16-------16----------------------------------| 
--------------------18h16-------18-16----16-------------------------------| 
--------------------------------------------18h16-14h13-16h13-14h13-11h13-| 
--------------------------------------------------------------------------| 
--------------------------------------------------------------------------| 
 
 
                                                                
-----------------------------------------------21----19----16-| 
-----------------------------------19----17-19----17----14----| 
-----------16----13----20----18-18----16----------------------| 
--14----14----11----18----16----------------------------------| 
--------------------------------------------------------------| 
--------------------------------------------------------------| 
 
 
                                                         
--16b-17h16-17------------16h14-16------------14h12-14-| 
-------------------------------------------------------| 
----------------18h16-18------------16h14-16-----------| 
-------------------------------------------------------| 
-------------------------------------------------------| 
-------------------------------------------------------| 
 
 
                                                                                 
--14---11h12h14-16h14h12h11-17h14h12h11-19h14h12h11-17h14h12h9-16h9h11h12------- 
--------------------------------------------------------------------------16h9h1 
-------------------------------------------------------------------------------- 
-------------------------------------------------------------------------------- 
-------------------------------------------------------------------------------- 
-------------------------------------------------------------------------------- 
 
 
                                                                 
----------------------------------|----------------------------| 
-----------17----16~---14---------|----------------------------| 
--14~---14----14-----------16-----|----------------------------| 
-------------------------------16r|---------14-14~----16/18-16~| 
----------------------------------|----------------------------| 
----------------------------------|----------------------------| 
 
 
                                
------------------------------| 
---------19----19r--17---16---| 
------16----16----------------| 
------------------------------| 
------------------------------| 
------------------------------| 
 
 
                                                                    
-------19r----17-16--16h17h19h17h16-------------------------------| 
--17--------------------------------19h17h16----------------------| 
---------------------------------------------18h16h14h13----------| 
---------------------------------------------------------16h13----| 
---------------------------------------------------------------16-| 
------------------------------------------------------------------| 
 
 
                                                                            
-------------------------19------------|-------------------------18-------| 
--14-----------14-17-19b----19r--17-19-|----------------------------------| 
---------13-16-------------------------|------15-15r----15-16/18----18~---| 
---------------------------------------|-------------16-------------------| 
---------------------------------------|----------------------------------| 
---------------------------------------|----------------------------------| 
 
 
                                                                                 
-------------------------------------------------------------------------------- 
--10h0-9h10-12h0-10h12-14h0-12h14-16h0-14h16-17h0-16h17-19h0-17h19-21h0-19h21-22 
-------------------------------------------------------------------------------- 
-------------------------------------------------------------------------------- 
-------------------------------------------------------------------------------- 
-------------------------------------------------------------------------------- 
 
 
                                               
-------------------------|-------------------| 
--24~------12-12---------|-------------------| 
-----------------------4-|--4~---------------| 
-------------------------|-------------------| 
-------------------------|-------------------| 
-------------------------|-------------------| 
 
 
                                                                                
---------------------------------------|--------------------------------------| 
-----------7--------10--7--9--7--------|-----------7--------------------------| 
--------9-----9------------------9-----|--------9-----9-----7--6-----------6--| 
-----9-----------9------------------9--|-----9-----------9--------9--7--9-----| 
--7------------------------------------|--7-----------------------------------| 
---------------------------------------|--------------------------------------| 
 
 
                                                                                
---------------------------------------|--------------------------------------| 
-----------7--------10--7--9--7--------|-----------7--------------------------| 
--------9-----9------------------9-----|--------9-----9-----7--6-----------6--| 
-----9-----------9------------------9--|-----9-----------9--------9--7--9-----| 
--7------------------------------------|--7-----------------------------------| 
---------------------------------------|--------------------------------------| 
 
 
                                                                                
---------------------------------------|--------------------------------------| 
-----------7--------10--7--9--7--------|-----------7--------------------------| 
--------9-----9------------------9-----|--------9-----9-----7--6-----------6--| 
-----9-----------9------------------9--|-----9-----------9--------9--7--9-----| 
--7------------------------------------|--7-----------------------------------| 
---------------------------------------|--------------------------------------| 
 
 
                                                                                
---------------------------------------|--------------------------------------| 
-----------7--------10--7--9--7--------|-----------7--------------------------| 
--------9-----9------------------9-----|--------9-----9-----7--6-----------6--| 
-----9-----------9------------------9--|-----9-----------9--------9--7--9-----| 
--7------------------------------------|--7-----------------------------------| 
---------------------------------------|--------------------------------------| 
 
 
                                                                            
|-------------------------------------|-----------------------------------| 
|-------------------------------------|-----------------------------------| 
|*------------------------------------|-----------------------------------| 
|*------------------------------------|-----------------------------------| 
|--------7----------5-----4-----------|-------7---------5h-4--------------| 
|---0---------0--0-----5-----5--7--5--|--0-----------0--------7--4--5--7--| 
 
 
                                                                             
------------------------------------|-------------------------------------|| 
------------------------------------|-------------------------------------|| 
------------------------------------|------------------------------------*|| 
------------------------------------|------------4--6--7--6--4--------4--*|| 
-------7----------5-----4-----------|-------7-------------------5--7------|| 
--0---------0--0-----5-----5--7--5--|--0----------------------------------|| 
 
 
                                                                      
--------------------------------|-----------------------------------| 
--------------------------------|-----------------------------------| 
-------9--------------7--9/-11--|--7----7-----------6------------6--| 
--------------------------------|---------------------9h7h6h7h9-----| 
--7-----------------------------|-----------------------------------| 
--------------------------------|-----------------------------------| 
 
 
                                                                      
------------------------------------|-------------------------------| 
------------------------------------|-------------------------------| 
------------------------------------|-------------------------------| 
--9----9------------7h6-------------|-------------------------------| 
------------------------9h5h7h9h7h5-|--7----7------------7/---17/---| 
------------------------------------|-------------------------------| 
 
 
                                  
--------------------------------| 
-----------------------------9--| 
-------9--------------9--11-----| 
--------------------------------| 
--7-----------------------------| 
--------------------------------| 
 
 
                                                 
-----------------------------------------------| 
--10h-9---------12--9--10h9h10h9---------------| 
---------11--9-------------------11--9---------| 
----------------------------------------11--7/-| 
-----------------------------------------------| 
-----------------------------------------------| 
 
 
                                              
--------------------------------------------| 
--------------------------------------------| 
--------------------------------------------| 
--9-----11h9h11h9h11h9h11h9-------7--9--11--| 
-------------------------------9------------| 
--------------------------------------------| 
 
 
                                                     
---------------------------------------------------| 
---------------------------------------------------| 
---------------------------------------------------| 
--12h11h12h11-9------11h-9-------------------------| 
-----------------12---------12--11--9--11----------| 
-------------------------------------------12--10--| 
 
 
                                      
------------------------------------| 
--------------------10-----9-----7--| 
------------------------------------| 
--------------6/-9------9-----9-----| 
------------------------------------| 
--12--------------------------------| 
 
 
                                               
---------------------------9-----------------| 
------------------------------10--12h-10h-9--| 
--9h10h9h7h-6--9--7--6-----------------------| 
------------------------9--------------------| 
---------------------------------------------| 
---------------------------------------------| 
 
 
                                              
-------------10--12--14---------------------| 
------9--10--------------10h-0--9h-0--7h-0--| 
--11----------------------------------------| 
--------------------------------------------| 
--------------------------------------------| 
--------------------------------------------| 
 
 
                                               
-----------7--9--10--------------------------| 
--------7------------10h-0--7--9h7h0-5h7h5h0-| 
--7--9---------------------------------------| 
---------------------------------------------| 
---------------------------------------------| 
---------------------------------------------| 
 
 
                                       
-------------------------------------| 
--5~-------------17h-14--15h-14------| 
---------------------------------16--| 
-------------------------------------| 
-------------------------------------| 
-------------------------------------| 
 
 
                                                    
--------------------------------------------------| 
--------------------------------------------------| 
--14--13------------------------------------------| 
----------16--18h-16h-14------14------------------| 
--------------------------16------16--14----------| 
------------------------------------------12--14--| 
 
 
                                                          
--------------------------------------------------------| 
--------------------------------------------------------| 
-----------------------------------------------11h13h14-| 
--------------11--14--11--12h-11------11h12h14----------| 
--12/-11h-12----------------------14--------------------| 
--------------------------------------------------------| 
 
 
                                                                                 
-------------------------------------------------------------------------------- 
--12h14h15h14h12---------------------------------------------------------------- 
-----------------14h13h11------------------------------------------------------- 
--------------------------14h12h11h12h14h12h11---------------------------------- 
-----------------------------------------------14h12h11------------------------- 
--------------------------------------------------------14h12h10-12h14h12-10-9/7 
 
 
                                                                       
-----------------------------|--------0--9h-0--7h-0------------------| 
-------14r-------------------|----15-----------------10h-0--9h-7-----| 
-----------------------------|------------------------------------7--| 
-----------------------------|---------------------------------------| 
-----------------------------|---------------------------------------| 
--0--------------------------|---------------------------------------| 
 
 
                                           
---------------------12----------12--14--| 
-------------------------10--12----------| 
--9-----------6h7/9----------------------| 
-----------------------------------------| 
-----------------------------------------| 
-----------------------------------------| 
 
 
                                                     
--10h12h10h9--------12-----------------------------| 
-------------12---------10--12--9--10--9h10h9h7----| 
-----------------9------------------------------7--| 
---------------------------------------------------| 
---------------------------------------------------| 
---------------------------------------------------| 
 
 
                                                                           
-------9b-------------------|--12--9--0--10h-0--12h-0--14h-0--16h-0--17--| 
----------------------------|--------------------------------------------| 
--9-------------------------|--------------------------------------------| 
----------------------------|--------------------------------------------| 
----------------------------|--------------------------------------------| 
----------------------------|--------------------------------------------| 
 
 
                                                                           
--16~-------------12-----------------|-----------------------------------| 
----------------------12--10--9--12--|--12--9----------------------------| 
-------------------------------------|---------9-------------------------| 
-------------------------------------|------------11/-9h-7--9~-----------| 
-------------------------------------|-----------------------------------| 
-------------------------------------|-----------------------------------| 
 
 
                                                                                 
-------------------------------------------------------------------------------- 
-----------------------------------------------------------------------10h12h10h 
-----------------------------------------11----------------------11-13---------- 
---------9h11-------------------11h12-14----14h12h14h12-11-11-13---------------- 
--11--12------12h14h12h11-12h14------------------------------------------------- 
-------------------------------------------------------------------------------- 
 
 
                                                                           
----------------------9--------------------------------------------------| 
--9-10h9------9-10-12---10-12-9-10-10h9-9h7----9--------------10---------| 
---------11-9-------------------------------9----11-9----9-11----9-11-10-| 
------------------------------------------------------12-----------------| 
-------------------------------------------------------------------------| 
-------------------------------------------------------------------------| 
 
 
                                                                                 
-------------------------------------------------------------------------------- 
-------------------------------------------------------------------------------- 
--9------------------------------------------------------11-13-14-11-11-11-13h14 
----12-11-9-12-11-9----11-12h11-9-12-12-12-11h9-11/14-14------------------------ 
--------------------12---------------------------------------------------------- 
-------------------------------------------------------------------------------- 
 
 
                                                                                 
--------------------------------14h16-16h14-----------17-19-21-21h19-22--------- 
--12-14-15-14-------------15-17-------------17--19-17-------------------22-21-19 
--------------16-14-13-16------------------------------------------------------- 
-------------------------------------------------------------------------------- 
-------------------------------------------------------------------------------- 
-------------------------------------------------------------------------------- 
 
 
                                    
--21r-----------21r---21r-----19--| 
----------------------------------| 
----------------------------------| 
----------------------------------| 
----------------------------------| 
----------------------------------| 
 
 
                                                        
--21h19-21h19---------19------------------------------| 
--------------22--21------22--21--19--22--21--19------| 
--------------------------------------------------21--| 
------------------------------------------------------| 
------------------------------------------------------| 
------------------------------------------------------| 
 
 
                                  
--------21r-----------------19--| 
--------------------------------| 
--19----------------------------| 
--------------------------------| 
--------------------------------| 
--------------------------------| 
 
 
                                                        
--21h19-21h19---------19--------------24--22--21--19--| 
--------------22--21------22--21--19------------------| 
------------------------------------------------------| 
------------------------------------------------------| 
------------------------------------------------------| 
------------------------------------------------------| 
 
 
                                                  
--------24------24------22------21--------------| 
----------------------------------------24--22--| 
--21--------21------21------21------21----------| 
------------------------------------------------| 
------------------------------------------------| 
------------------------------------------------| 
 
 
                                                  
--------24------24------22------21--------------| 
----------------------------------------24--22--| 
--21--------21------21------21------21----------| 
------------------------------------------------| 
------------------------------------------------| 
------------------------------------------------| 
 
 
                                                    
------24------22------21----------------------24--| 
------------------------------24------22----------| 
--21------21------21------21------21------21------| 
--------------------------------------------------| 
--------------------------------------------------| 
--------------------------------------------------| 
 
 
                                                    
------22------21------------------------------22--| 
----------------------24------22------24----------| 
--21------21------21------21------21------21------| 
--------------------------------------------------| 
--------------------------------------------------| 
--------------------------------------------------| 
 
 
                                                                            
--24-24-24-24-24-24-24-24-24-24-24-24-24-24-24-24-24-24-24-24-24-24h21-22-| 
--------------------------------------------------------------------------| 
--------------------------------------------------------------------------| 
--------------------------------------------------------------------------| 
--------------------------------------------------------------------------| 
--------------------------------------------------------------------------| 
 
 
                                                                                 
--22h24-22-21-22-24-22h21-21h22-24-22-21h22-22h24-24h22-22h21-21-22-24-22-21-22h 
-------------------------------------------------------------------------------- 
-------------------------------------------------------------------------------- 
-------------------------------------------------------------------------------- 
-------------------------------------------------------------------------------- 
-------------------------------------------------------------------------------- 
 
 
                                                                                 
--22-21-19-21-22-21-21-19-19-17-19-21-22-21-19-18-19-19-18h19h21-19-17-17-17-19- 
-------------------------------------------------------------------------------- 
-------------------------------------------------------------------------------- 
-------------------------------------------------------------------------------- 
-------------------------------------------------------------------------------- 
-------------------------------------------------------------------------------- 
 
 
                                                                                 
--17-19-19-17-17-19-19-17-16-16-17-19-19-17-16-15-14-16-16-17-17-16-14-14-16-18- 
-------------------------------------------------------------------------------- 
-------------------------------------------------------------------------------- 
-------------------------------------------------------------------------------- 
-------------------------------------------------------------------------------- 
-------------------------------------------------------------------------------- 
 
 
                                                                                 
--14-14-16-16-14-12-14-16-14-12--12-14-14-16-16-14-12-12-12-14-12-12-14-12------ 
---------------------------------------------------------------------------15-12 
-------------------------------------------------------------------------------- 
-------------------------------------------------------------------------------- 
-------------------------------------------------------------------------------- 
-------------------------------------------------------------------------------- 
 
 
                                                                                
--9-10--12-10-9-10-12-10-7---10-12-10-9-9-10-10-9-7-9-10-10-9-7/4/0-2-4-5-4-2-| 
---------------------------9--------------------------------------------------| 
------------------------------------------------------------------------------| 
------------------------------------------------------------------------------| 
------------------------------------------------------------------------------| 
------------------------------------------------------------------------------| 
 
 
                                                                  
--4-5-4-2-2-0---------------------------------------------------| 
--------------4-2-0-0-2-3-5-3-2---------------------------------| 
--------------------------------6-7-7-6-6-4---------------------| 
--------------------------------------------7-4-6-7-9-7-6-7-9-7-| 
----------------------------------------------------------------| 
----------------------------------------------------------------| 
 
 
                                                        
------------------------------------------------------| 
------------------------------------------------------| 
------------------------------------------------------| 
------------------------------------------------------| 
--11-9-7--------11-9-7--------------------------------| 
---------10-9-7--------10-9-7-9-7-5-9-7-5-7-5-4-7-5-4-| 
 
 
                                       
---------------------12--------------| 
-------15~---------------15--12------| 
---------------------------------14b-| 
-------------------------------------| 
-------------------------------------| 
--0----------------------------------| 
 
 
                                                    
--------------------------------------------------| 
--12----------------------------------------------| 
------15--14--13--12------------------------------| 
----------------------14--12------------------14--| 
------------------------------14--13--12--11------| 
--------------------------------------------------| 
 
 
                                            
------------------------------------------| 
------------------------------------------| 
--------------------------------------12--| 
------------------------------12--14------| 
----------------------12--14--------------| 
--12----------12--15----------------------| 
 
 
                                                  
------------------------12------14------15------| 
------------12--14--15------12------12------12--| 
--14--12-13-------------------------------------| 
------------------------------------------------| 
------------------------------------------------| 
------------------------------------------------| 
 
 
                                                    
--16----------14----------12----------12----------| 
--------------------------------------------------| 
------16/-14------14/-13------13/-14------14/-16--| 
--------------------------------------------------| 
--------------------------------------------------| 
--------------------------------------------------| 
 
 
                                          
--16------17------18------19~-----------| 
------15------14------13----------------| 
----------------------------------------| 
----------------------------------------| 
----------------------------------------| 
----------------------------------------| 
 
 
                                                                                 
--12/-19----21b-----21b-21b-21b-21b-21b-21r-|------21r---21r---21r---21r---21r-| 
--------------------------------------------|----------------------------------| 
--------------------------------------------|----------------------------------| 
--------------------------------------------|----------------------------------| 
--------------------------------------------|----------------------------------| 
--------------------------------------------|----------------------------------| 
 
 
                                                               
--22b---------22~-22~-----------|------22~-------------------| 
--------------------------------|----------------------------| 
--------------------------------|----------------------------| 
--------------------------------|----------------------------| 
--------------------------------|----------------------------| 
--------------------------------|----------------------------| 
 
 
                                                             
------22~---------------22~---|------22~-------------------| 
------------------------------|----------------------------| 
------------------------------|----------------------------| 
------------------------------|----------------------------| 
------------------------------|----------------------------| 
------------------------------|----------------------------| 
 
 
                                                             
--22r---------22r---------22r---|--------------------------| 
--------------------------------|--------------------------| 
--------------------------------|--------------------------| 
--------------------------------|--------------------------| 
--------------------------------|--------------------------| 
--------------------------------|--------------------------| 

Comentarios del colaborador: muy buen tema

Calificar esta versión:
Aviso: Este fichero es trabajo propio de su transcriptor y representa su interpretación personal de la canción. El material contenido en esta página es para exclusivo uso privado, por lo que se prohibe su reproducción o retransmisión, así como su uso para fines comerciales.