Animate Inanimate, John Petrucci (tablatura)

Autor: eric_slayer(696) | 26078 visualizaciones

E||-------------------|-------------------------|--------------------------| 
B||-------------------|-------------------------|--------------------------| 
G||----------------x--|--6r------------------6r-|--------------------------| 
D||-------------------|-------7-----5--7--------|----7-----5--7------------| 
A||-------------------|----------0--------0-----|-------0--------0--4-5-7--| 
E||-------------------|-------------------------|--------------------------| 
 
 
                                                        
-------------------------|----------------------------| 
-------------------------|----------------------------| 
--6r---------------------|----------------------------| 
-------7-----5--7-----7--|----------------3-2h3h2--0--| 
----------0--------0-----|----0--1--4--5--------------| 
-------------------------|----------------------------| 
 
 
                                                                                
-------------------------|--------------------------|-------------------------| 
-------------------------|--------------------------|-------------------------| 
--6r------------------6r-|-------6h-7/-12/-9/-3h-2--|--6r---------------------| 
-------7-----5--7--------|----7---------------------|-------7-----5--7-----7--| 
----------0--------0-----|--------------------------|----------0--------0-----| 
-------------------------|--------------------------|-------------------------| 
 
 
                                                          
----------------------------|---------------------------| 
----------------------------|---------------------------| 
----------------------------|---------------------------| 
----------------3-2h3h2--0--|---------------------------| 
----0--1--4--5--------------|-----------5--4------------| 
----------------------------|--3--5--6--------5--x-x-x--| 
 
 
                                                                                 
--------------------------|-------------------------|--------------------------| 
--------------------------|-------------------------|--------------------------| 
--------------------------|-------------------------|--------------------------| 
--------------------------|----------------------7/-|--8--5--x--3/-5--2--------| 
--------------5--4--8--7~-|----------5--4--------7/-|--8--5--x--3/-5--2--------| 
--x--3--5--6--------------|----3--6--------5--x--5/-|--6--3--x--1/-3--0--x--x--| 
 
 
                                                        
---------------------------|--------------------------| 
---------------------------|--------------------------| 
---------------------------|--------------------------| 
---------------------------|--------------------------| 
-----------5--4--x-x-x--x--|--x-----------5--4--8--7~-| 
--3--5--6------------------|-----3--5--6--------------| 
 
 
                                                      
-------------------------|--------------------------| 
-------------------------|--------------------------| 
-------------------------|--------------------------| 
-------------------------|--8/-7--------------------| 
-------------5--4--------|-----------8/-7-----------| 
----3--5--6--------6--5--|--------x--------x--6/-5--| 
 
 
                                                        
---------------------------|--------------------------| 
---------------------------|--------------------------| 
---------------------------|--------------------------| 
---------------------------|--------------------------| 
-----------5--4------------|--------------5--4--8--7~-| 
--3--5--6--------x-x-x--x--|--x--3--5--6--------------| 
 
 
                                                                                 
-------------------------|--------------------------|--------------------------| 
-------------------------|--------------------------|--------------------------| 
-------------------------|--------------------------|-----------2--4--------4--| 
----------------------7/-|--8--5--x--3/-5--2--------|--------3-----------------| 
----------5--4--------7/-|--8--5--x--3/-5--2--------|-----3--------------5-----| 
----3--6--------5--x--5/-|--6--3--x--1/-3--0--x--0--|--1--------------3--------| 
 
 
                                                                                 
-----------------------------|-------------------------|-----------------------| 
-----------------------------|-------------------------|-----------------------| 
--5--------5-4h5h4-----------|----------2--4-----5--4--|--2----2--0------------| 
--------------------5--------|-------3-----------------|--2----2--0----2-------| 
--------7--------------5-----|----3--------------------|--0----0-------2-------| 
-----5--------------------1--|----------------3--------|----------3----0----1--| 
 
 
                                                                                
-------------------------|--------------------------|-------------------------| 
-------------------------|--------------------------|-------------------------| 
----------2--4--------4--|--5--------5--7--4-----5~-|----------5--4-----------| 
-------3-----------------|--------------------5-----|-------------------------| 
----3--------------5-----|--------7-----------------|-------3--------------2--| 
----------------3--------|-----5--------------------|----1-----------0--3-----| 
 
 
                                                                               
------------------------|-------------------------|--------------------------| 
------------------------|-------------------------|--------------------------| 
--2----2--4--2--5-------|----------2--4--------4--|--5--------5--7--------7--| 
--2----2--2--2--2-------|-------3-----------------|--------------------5-----| 
--0----0-----0----------|----3--------------5-----|--------7-----------------| 
---------------------1--|----------------3--------|-----5-----------7--------| 
 
 
                                                      
-------------------------|--------------------------| 
--8-----6--5~------------|-----3--5/-6--------5--6--| 
-----7-------------------|--5-----------------------| 
-------------------2--5--|-----------------7--------| 
----------------3--------|--------------5-----------| 
-------------------------|--------------------------| 
 
 
                                                        
---------------------------|--------------------------| 
---------------------------|--------------------------| 
--------7/-9---------9/-5--|--------5/-7--------7/-3--| 
---------------------------|--------------------------| 
-----8-----------10--------|-----7-----------8--------| 
--6-----------8------------|--5-----------6-----------| 
 
 
                                                       
--------------------------|--------------------------| 
--------------------------|--------------------------| 
--------3--2-----------2--|--4--5--------5--7--------| 
--------------------3-----|--------------------------| 
-----5-----------3--------|-----------7-----------8--| 
--3-----------1-----------|--------5-----------6-----| 
 
 
                                                                        
-----------------------------|----------10------15~-------|----------|| 
-----------------------------|----------------------------|----------|| 
-----7--9/-10-------------9--|--10/-12------12------------|----------|| 
--8-------------------10-----|----------------------------|----------|| 
------------------10---------|----------------------------|----------|| 
---------------8-------------|----------------------------|----------|| 

bueno este es el segundo te ma q pongo saludos a mis amigos pol ,ivan ,diego ...yo eric slayer 696
Calificar esta versión:
Aviso: Este fichero es trabajo propio de su transcriptor y representa su interpretación personal de la canción. El material contenido en esta página es para exclusivo uso privado, por lo que se prohibe su reproducción o retransmisión, así como su uso para fines comerciales.