The Past Recedes, John Frusciante (acordes)

Autor: Limprock | 24689 visualizaciones

ambb7cddsosd7dmemg
Intro: G  D  Am  Em [3x]
       G  D  Am

Verso:
G         D      Am        Em
And then the past recedes
G      D        Am        Em
And I won't be involved
G          D     Am    Em
The effort to be free
G                 D   Am
Seems pointless from above
G              D       Am    Em
Yor're looking down at' me
G          D     Am   Em
I'd rather stay below
G             D         Am      Em
Than have you staring up at me
G              D         Am     B7
Theres nowhere I want to gooo  ooooo

C        D7              Em             D
Ay, this business of how long we try to stay alive
C      D7                   Em
Why to be here you've first got to die
D
So I gave it a try
    C           G
And what do you know
            Am      B7
Time was so long ago

G          D            Am    Em
And thinks come back you see
G        D         Am       Em
To where they don't belong
G         D      Am    Em
And every drop of sea
G D           Am        B7
Is the whole ocean      oooooooohhh

  C           D7
I lied to the greatest thieves
      Em           D
About anything and everything
C     D7           Em
I'm a figure of forgotten speech
D
I'm out of reach
C               G
I can't play it safe
            Am          B7
But I might just in case

Solo: G D Am Em
E|-10-8h10p8---7-7h8p7-5----------7----------------------------------|
B|--------------------------8-7-8---------10-8-7-8----7-5-3h5p3-0----|
G|-------------------------------------------------------------------|
D|-------------------------------------------------------------------|
A|-------------------------------------------------------------------|
E|-------------------------------------------------------------------|

E|------------------------------------------------------3---|
B|-0---0------------------------------------3-1h3h1--0------|
G|---2---2--0h2h0----0--0------------0-4-0------------------|
D|-----------------4------4-2-0-2-4-------------------------|
A|----------------------------------------------------------|
E|----------------------------------------------------------|

E|-10-10---12b-12b-12b-12--14b-14--|
B|---------------------------------|
G|---------------------------------|
D|---------------------------------|
A|---------------------------------|
E|---------------------------------|

C     Dm            Em
I'm disguised as a reaching hand
D
I'm working man
  C         D#º
I dont understand why clockout
Em            D
Comes so slow every time
       C          G            Am
That's one line I stay right behind
       C          G            Am    B7
That's one line I stay right behind

[ G  D  Am  Em ] [3x]
[ G  D  Am  B  G ]
Calificar esta versión:
Aviso: Este fichero es trabajo propio de su transcriptor y representa su interpretación personal de la canción. El material contenido en esta página es para exclusivo uso privado, por lo que se prohibe su reproducción o retransmisión, así como su uso para fines comerciales.