Canon In D, Johann Pachelbel (tablatura)

Autor: LEMUZLP | 43714 visualizaciones

bueno aki les dejo algo de lo poco que se;D

  D             A             Bm            F#m
E|---------2---|-------------|-------------|-------------|
B|-------3-----|---------2---|---------3---|---------2---|
G|-----2-------|-------2-----|-------4-----|-------2-----|
D|---0---------|-----2-------|-----4-------|-----4-------|
A|-------------|---0---------|---2---------|---4---------|
E|-------------|-------------|-------------|-------------|

  G             D             G             A
E|---------3---|---------2---|---------3---|-------------|
B|-------3-----|-------3-----|-------3-----|---------2---|
G|-----0-------|-----2-------|-----0-------|-------2-----|
D|-------------|---0---------|-------------|-----2-------|
A|-------------|-------------|-------------|---0---------|
E|---3---------|-------------|---3---------|-------------|

aqui es solo punteo xD!

E|--0----------|-------------|-------------|-------------|
B|-------3----1|----0--------|-----------0-|-1--0--1-----|
G|-------------|---------2---|-0----2------|-------------|
D|-------------|-------------|-------------|----------2--|
A|-------------|-------------|-------------|-------------|
E|-------------|-------------|-------------|-------------|

E|----------0--|-3--0--3--5--|-1--0-----1--|-0-----------|
B|----0--1-----|-------------|-------3-----|----3--1--0--|
G|-0-----------|-------------|-------------|-------------|
D|-------------|-------------|-------------|-------------|
A|-------------|-------------|-------------|-------------|
E|-------------|-------------|-------------|-------------|

E|-------------|------0------|--0--5--3--5-|7------------|
B|----------1--|1--0-----3--1|-------------|-------------|
G|-2--0--------|-------------|-------------|-------------|
D|-------2-----|-------------|-------------|-------------|
A|-------------|-------------|-------------|-------------|
E|-------------|-------------|-------------|-------------|

E|-3-0-1-3-0-1-|3-----------0|-1-0-----0---|-------------| -|
B|-------------|------0-1-3--|-----1-3-----|-------------|  |
G|-------------|--0-2--------|-------------|--0-2-0---0--|  |
D|-------------|-------------|-----------2-|3-------3----|  |
A|-------------|-------------|-------------|-------------|  |
E|-------------|-------------|-------------|-------------|  |
                                                            |
E|-------------|-------------|-------------|-------------|  |
B|1-0-1---1-0--|-------------|----0-1---1-0|-1-0---0-----|  |
G|------2-----2|-0---0-------|0-2-----2----|-----2-------|  |-2x
D|-------------|---3---3-2-3-|-------------|-------------|  |
A|-------------|-------------|-------------|-------------|  |
E|-------------|-------------|-------------|-------------|  |
                                                            |
E|-----------0-|1-3----------|-------------|-------------|  |
B|-----0-1-3---|-------------|-------------|-------------|  |
G|-0-2---------|-------------|-------------|-------------|  |
D|-------------|-------------|-------------|-------------|  |
A|-------------|-------------|-------------|-------------|  |
E|-------------|-------------|-------------|-------------| -|

E|----3--5--3--|1--0-----0--1|-0-----------|-------------|
B|-------------|-------------|----3--1-----|------1------|
G|-0-----------|------0------|----------3--|2--3-----0---|
D|-------------|-------------|-------------|-------------|
A|-------------|-------------|-------------|-------------|
E|-------------|-------------|-------------|-------------|

E|-------------|---------3---|-----3-----3-|-5--3--1--0--|
B|-1-----------|1------------|-------------|-------------|
G|----3--2--3--|---0--0-----0|--0-----0----|-------------|
D|-------------|-------------|-------------|-------------|
A|-------------|-------------|-------------|-------------|
E|-------------|-------------|-------------|-------------|

E|----3--------|3-----3--5--3|--1--0-----0-|---0--1--0---|
B|-------------|-------------|-------------|-------------|
G|-0-----0--0--|---0---------|--------0----|0------------|
D|-------------|-------------|-------------|-------------|
A|-------------|-------------|-------------|-------------|
E|-------------|-------------|-------------|-------------|

E|-------------|-------------|-------------|-------------|
B|3--1---------|-1----1------|----1--------|-------------|
G|------3--2--3|----0----3--2|-3-----0-----|-------------|
D|-------------|-------------|-------------|-------------|
A|-------------|-------------|-------------|-------------|
E|-------------|-------------|-------------|-------------|

ESPERO Y LES GUSTE ;D!

BY:LEMUZ,L'P
Calificar esta versión:
Aviso: Este fichero es trabajo propio de su transcriptor y representa su interpretación personal de la canción. El material contenido en esta página es para exclusivo uso privado, por lo que se prohibe su reproducción o retransmisión, así como su uso para fines comerciales.