Top Gun, Joe Satriani (tablatura)

Autor: slashmaiden | 28605 visualizaciones

e-------------------------------------------------------------|
b------8--8--6--5--6--5--------------5-----5--6--5-----5------|
g---5--------------------7--7--5--7-----7-----------5-----7--7|
d-------------------------------------------------------------|
a-------------------------------------------------------------|
E-------------------------------------------------------------|


e---------------------------------------------------------|
b------8--8--6--5--6--5--------------5-----5--6--5-----8--|
g---5--------------------7--7--5--7-----7-----------5-----|
d---------------------------------------------------------|
a---------------------------------------------------------|
E---------------------------------------------------------|


e---------------------------------------------------------------------------------|
a------14--14--12--11--12--11------------------11------11--12--11------11---------|
d--11--------------------------13--13--11--13------13--------------11------13--13-|
g---------------------------------------------------------------------------------|
b---------------------------------------------------------------------------------|
E---------------------------------------------------------------------------------|


e---------------------------------------------------------------------------------|
a------14--14--12--11--12--11------------------11------11--12--11------14---------|
d--11--------------------------13--13--11--13------13--------------11-------------|
g---------------------------------------------------------------------------------|
b---------------------------------------------------------------------------------|
E---------------------------------------------------------------------------------|
Calificar esta versión:
Aviso: Este fichero es trabajo propio de su transcriptor y representa su interpretación personal de la canción. El material contenido en esta página es para exclusivo uso privado, por lo que se prohibe su reproducción o retransmisión, así como su uso para fines comerciales.