Super Colossal, Joe Satriani (tablatura)

Autor: Iñigo17 | 33442 visualizaciones

Joe Satriani 
Super Colossal 


e|-----------------------------------------------| 
B|-----------------------------------------------| 
G|--------------------------9--------------9-----| 
D|-11-9----------------9-11---11-11-9--------11-| 
A|------11-9-7----9-11----------------11-9-------| 
E|-------------9~-------------------------------| 
 
e|-----------------------------------------------| 
B|-----------------------------------------------| 
G|-11^12^11-9-11-9-------------------------------| 
D|-----------------11-9-11-9-----------------9-11| 
A|---------------------------11-9-7-----9-11-----| 
E|----------------------------------9~----------| 
 
e|---------------------12-9----------------------| 
B|--------------------------12-9------12-9-------| 
G|-9--------------9--------------11-9------11-9--| 
D|---11-11-9--------11---------------------------| 
A|-----------11-9--------------------------------| 
E|-----------------------------------------------| 
 
e|-----------------------------------------------| 
B|-----------------------------------------------| 
G|------11-9-------------------------10-11-10----| 
D|-11-9------11-9------11-9-------11-------------| 
A|----------------11-9------11-9-----------------| 
E|-----------------------------------------------| 
 
e|-----------------------------------------------| 
B|-----------------------------------------------| 
G|-11/13-13-11-10---------9----------------------| 
D|----------------11-9-11---11-13^14^13-11~-----| 
A|-----------------------------------------------| 
E|-----------------------------------------------| 
 
e|-----------------------------------------------| 
B|-------------11^12-11^12-----------------------| 
G|----10-11-10-------------10^11^10---------9----| 
D|-11-------------------------------11-9-11---11-| 
A|-----------------------------------------------| 
E|-----------------------------------------------| 
e|--------------13-14-13-14^16-14^16-13^14^13----| 
B|-----------14-------------------------------14-| 
G|------11~-------------------------------------| 
D|-9-11------------------------------------------| 
A|-----------------------------------------------| 
E|-----------------------------------------------| 
 
e|-------12---------------------13-14-17^19-17^19| 
B|-12-14----14-16^17^16-14~-14------------------| 
G|-----------------------------------------------| 
D|-----------------------------------------------| 
A|-----------------------------------------------| 
E|-----------------------------------------------| 
 
e|-------------------12-------------14-----------| 
B|-18^19^18----12-14----14-14-12-14--------------| 
G|----------18-------------------------------13--| 
D|-------------------------------------12/15-----| 
A|-----------------------------------------------| 
E|-----------------------------------------------| 
 
e|-----------------------------------------------| 
B|-----------------------------------------------| 
G|-15-13-----------------------------------------| 
D|-------13^14^13-11-14-------11-13-13^14-13^14--| 
A|----------------------13-13--------------------| 
E|-----------------------------------------------| 
 
e|-----------------------------------------------| 
B|-----------------------------------------------| 
G|-13^14^13-11-13-------13-15-13-----------------| 
D|----------------12/15----------13^14^13-11-14--| 
A|---------------------------------------------13| 
E|-----------------------------------------------| 
 
e|-----------------------------------------------| 
B|-----------------------------------------------| 
G|----------------------11/16-13-----------------| 
D|-11----11-14-14-14-11----------14-14-14-11-----| 
A|----13-----------------------------------------| 
E|-----------------------------------------------| 
 
e|---------------------------------| 
B|---------------------------------| 
G|-11/16-13-11---------------------| 
D|-------------14-11---------------| 
A|-------------------14-11---------| 
E|-------------------------14-12-9-| 
 
e|-----------------------------------------------| 
B|-----------------------------------------------| 
G|--------------------------9--------------9-----| 
D|-11-9----------------9-11---11-11-9--------11-| 
A|------11-9-7----9-11----------------11-9-------| 
E|-------------9~-------------------------------| 
 
e|-----------------------------------------------| 
B|-----------------------------------------------| 
G|-11^12^11-9-11-9-------------------------------| 
D|-----------------11-9-11-9-----------------9-11| 
A|---------------------------11-9-7-----9-11-----| 
E|----------------------------------9~----------| 
 
e|---------------------12-9----------------------| 
B|--------------------------12-9------12-9-------| 
G|-9--------------9--------------11-9------11-9--| 
D|---11-11-9--------11---------------------------| 
A|-----------11-9--------------------------------| 
E|-----------------------------------------------| 
 
e|---------------------------------| 
B|---------------------------------| 
G|------11-9-----------------------| 
D|-11-9------11-9------11-9--------| 
A|----------------11-9------11-9---| 
E|---------------------------------| 
 
Solo de guitarra 
 
1ª parte:
e|-----6-----------6-----------------------------| 
B|-------9-6-----6---9-6-------------------------| 
G|-8^9-------8^9---------8-8^9-6-8-6-------------| 
D|-----------------------------------8-6---------| 
A|---------------------------------------8-64---| 
E|-----------------------------------------------| 
 
e|-----------------------------------------------| 
B|-------------------------------6---------------| 
G|-------------------6-------6-8---8-----6-8^9---| 
D|-------6-8-6-8-6-8---8-6-8---------8-8---------| 
A|-4/6-8-----------------------------------------| 
E|-----------------------------------------------| 
 
e|-6---------------------------| 
B|---9-6-----------------------| 
G|-------8-8^9-6-8-6-----------| 
D|-------------------8-6-------| 
A|-----------------------8-64-| 
E|-----------------------------|
 
2ª parte: 
e|------9------9---12-9----9------9-/14^15-14h~--| 
B|-/9-9---9-12---9------12---9-12~---------------| 
G|-----------------------------------------------| 
D|-----------------------------------------------| 
A|-----------------------------------------------| 
E|-----------------------------------------------| 
 
e|-12----15^16-15-12----15^16-15-12----| 
B|----14-------------14-------------14-| 
G|-------------------------------------| 
D|-------------------------------------| 
A|-------------------------------------| 
E|-------------------------------------| 
 
e|-15^(19)b(17)^15-14----------------------------| 
B|---------------------17-14-17-12-14-12-10------| 
G|------------------------------------------11-9-| 
D|-----------------------------------------------| 
A|-----------------------------------------------| 
E|-----------------------------------------------| 
 
e|-------------------| 
B|-------------------| 
G|-----9~------------| 
D|--11---11-9--------| 
A|------------11-97-| 
E|-------------------| 
 
3ª parte:
e|-----6-----------6-----------------------------| 
B|-------9-6-----6---9-6-------------------------| 
G|-8^9-------8^9---------8-8^9-6-8-6-------------| 
D|-----------------------------------8-6---------| 
A|---------------------------------------8-64---| 
E|-----------------------------------------------| 
 
e|-------------------------------9-6---9-6-------| 
B|-----------------------------------6-----6-----| 
G|-------------------6-------6-8-----------------| 
D|-------6-8-6-8-6-8---8-6-8---------------------| 
A|-4/6-8-----------------------------------------| 
E|-----------------------------------------------| 
	x3 x5 
e|-9-6---9-6---9-6------------------------10-11--| 
B|-----6-----6-----6-9--------------------8--9---| 
G|---------------------8-8-6-6---6-8-6/----------| 
D|-----------------------------8-----------------| 
A|-----------------------------------------------| 
E|-----------------------------------------------| 
   x3 x5 x3 x5 
e|-10-11-8--7----------9---------9--------9----| 
B|-8--9--6--9--------9---------9--------9---14~| 
G|-------------11^13-----11^13----11^13--------| 
D|---------------------------------------------| 
A|---------------------------------------------| 
E|--------------------------------------------- 
 
Fin del solo
 
e|------------|-------------------------------------------| 
B|------------|-------------------------------------------| 
G|----10-11-10|-11/13-13-11-10---------9------------------| 
D|-11---------|----------------11-9-11---11-13^14^13-11~-| 
A|------------|-------------------------------------------| 
E|------------|-------------------------------------------| 
 
e|-----------------------------------------------| 
B|-------------11^12-11^12-----------------------| 
G|----10-11-10-------------10^11^10---------9----| 
D|-11-------------------------------11-9-11---11-| 
A|-----------------------------------------------| 
E|-----------------------------------------------| 
 
e|--------------13-14-13-14^16-14^16-13^14^13----| 
B|-----------14-------------------------------14-| 
G|------11~-------------------------------------| 
D|-9-11------------------------------------------| 
A|-----------------------------------------------| 
E|-----------------------------------------------| 
 
e|-------12---------------------13-14-17^19-17^19| 
B|-12-14----14-16^17^16-14~-14------------------| 
G|-----------------------------------------------| 
D|-----------------------------------------------| 
A|-----------------------------------------------| 
E|-----------------------------------------------| 
 
e|-------------------12-------------14-----------| 
B|-18^19^18----12-14----14-14-12-14--------------| 
G|----------18-------------------------------13--| 
D|-------------------------------------12/15-----| 
A|-----------------------------------------------| 
E|-----------------------------------------------| 
 
e|-----------------------------------------------| 
B|-----------------------------------------------| 
G|-15-13-----------------------------------------| 
D|-------13^14^13-11-14-------11-13-13^14-13^14--| 
A|----------------------13-13--------------------| 
E|-----------------------------------------------| 
 
e|-----------------------------------------------| 
B|-----------------------------------------------| 
G|-13^14^13-11-13-------13-15-13-----------------| 
D|----------------12/15----------13^14^13-11-14--| 
A|---------------------------------------------13| 
E|-----------------------------------------------| 
 
e|-----------------------------------------------| 
B|-----------------------------------------------| 
G|----------------------11/16-13-----------------| 
D|-11----11-14-14-14-11----------14-14-14-11-----| 
A|----13-----------------------------------------| 
E|-----------------------------------------------| 
 
e|---------------------------------| 
B|---------------------------------| 
G|-11/16-13-11---------------------| 
D|-------------14-11---------------| 
A|-------------------14-11---------| 
E|-------------------------14-12-9-| 
 
e|-----------------------------------------------| 
B|-----------------------------------------------| 
G|--------------------------9--------------9-----| 
D|-11-9----------------9-11---11-11-9--------11-| 
A|------11-9-7----9-11----------------11-9-------| 
E|-------------9~-------------------------------| 
 
e|-----------------------------------------------| 
B|-----------------------------------------------| 
G|-11^12^11-9-11-9-------------------------------| 
D|-----------------11-9-11-9-----------------9-11| 
A|---------------------------11-9-7-----9-11-----| 
E|----------------------------------9~----------| 
 
e|---------------------12-9----------------------| 
B|--------------------------12-9------12-9-------| 
G|-9--------------9--------------11-9------11-9--| 
D|---11-11-9--------11---------------------------| 
A|-----------11-9--------------------------------| 
E|-----------------------------------------------| 
 
e|-------------------------------12-9------------| 
B|------------------------------------12-9-------| 
G|------11-9-------------------------------11-9--| 
D|-11-9------11-9------11-9----------------------| 
A|----------------11-9------11-9-----------------| 
E|-----------------------------------------------| 
 
e|-----------------------------------------------| 
B|-12-9------------------------------------------| 
G|------11-9------11-9---------------------------| 
D|-----------11-9------11-9------11-9------------| 
A|--------------------------11-9------11-9-------| 
E|-----------------------------------------------| 
 
e|12-9---------------------------------------------------------| 
B|-----12-9------12-9------------------------------------------| 
G|----------11-9------11-9------11-9---------------------------| 
D|-------------------------11-9------11-9------11-9------11-11| 
A|----------------------------------------11-9------11-9-11-11|  
E|-------------------------------------------------------9?-9-| 

Símbolos:
~-Vibrato
^-Hammer on/Pull off
/-Slide hacia arriba
-Slide hacia abajo
Calificar esta versión:
Aviso: Este fichero es trabajo propio de su transcriptor y representa su interpretación personal de la canción. El material contenido en esta página es para exclusivo uso privado, por lo que se prohibe su reproducción o retransmisión, así como su uso para fines comerciales.