Sleep Walk, Joe Satriani (tablatura)

Autor: xXxtioxXx | 16536 visualizaciones

C / / Am / / Fm / / G / /  C / / Am / / Fm / / G / /
                                                    
E ||-5/8------------------------5/8-------------------------------------|
B ||---------8------6-8---9-8-8---------8------6-8---9-8-5--------------|
G ||--------------------------------------------------------------------|
D ||--------------------------------------------------------------------|
A ||--------------------------------------------------------------------|
E ||--------------------------------------------------------------------|

      C / / Am / / Fm / / G / /  C / / Am / / Fm / / G / /

E ||--------------------------------------------------------------------|
B ||-8-5-8-5--------------/5/5/5----------------------------------------|
G ||---------5-------------------/5----/5-----/5/5-7-5-5-5\4------------|
D ||---------------6-6-6-6----------------------------------------------|
A ||--------------------------------------------------------------------|
E ||--------------------------------------------------------------------|


      C / / Am / / Fm / / G / /  C / / Am / / Fm / / G / /
                                                    
E ||-5/8------------------------5/8-------------------------------------|
B ||---------8------6-8---9-8-8---------8------6-8---9-8-5--------------|
G ||--------------------------------------------------------------------|
D ||--------------------------------------------------------------------|
A ||--------------------------------------------------------------------|
E ||--------------------------------------------------------------------|

      C / / Am / / Fm / / G / /  C / / C7 / /

E ||--------------------------------------------------------------------|
B ||-8-5-8-5--------------/5/5/5-/5-5\4\3-------------------------------|
G ||---------5-------------------/5-5\4\3-------------------------------|
D ||---------------6-6-6-6----------------------------------------------|
A ||--------------------------------------------------------------------|
E ||--------------------------------------------------------------------|

    Bridge:

     F / /  Am / / Fm / / B(flat)   / /    C/ /F9 / /C / / C7 / /

E ||--------8/12-10-8---------8-12-10-8---------------------------------|
B ||-3/10-10---------10\9-9-10---------10\8-8/11-8-8--17\16\15----------|
G ||---------------------------------------9------9---17\16\15----------|
D ||--------------------------------------------------------------------|
A ||--------------------------------------------------------------------|
E ||--------------------------------------------------------------------|


     F / /   Am  / /  Fm      / / / /    G / / B (flat)/ / G / / G7 / /           

E ||--------8/12-10-8---------8-12-10-8---------------------------------| 
B ||--/10-10---------10\9-9-10---------10\8-8/11-----------8-8----------|
G ||---------------------------------------9----------------9-----------|
D ||--------------------------------------------------------------------|
A ||--------------------------------------------------------------------|
E ||--------------------------------------------------------------------|
Calificar esta versión:
Aviso: Este fichero es trabajo propio de su transcriptor y representa su interpretación personal de la canción. El material contenido en esta página es para exclusivo uso privado, por lo que se prohibe su reproducción o retransmisión, así como su uso para fines comerciales.