Satch Boogie, Joe Satriani (tablatura)

Autor: james tarkian roses | 19564 visualizaciones

Guitar 1
                                                            
E||------------------|------------------|------------------|
B||------------------|------------------|------------------|
G||------------------|------------------|------------------|
D||------------------|------------------|------------------|
A||------------------|------------------|------------------|
E||------------------|------------------|------------------|


                                                                              
---------------------||-------------------------|----------------------------|
---------------------||-------------------------|----------------------------|
---------------------||*------------------------|--------------2h---0--------|
---------------------||*------------------------|----------------------------|
------------0--3h-0--||---5--0------------3h-5--|--5h-6h-5h-0----------3h-0--|
---------------------||---------3--5~-----------|----------------------------|


                                                                               
--------------------------|--------------------------||-----------------------|
--------------------------|--------------------------||-----------------------|
-----2--------0-----------|-------------------------*||-----------------------|
-----------4-----0--------|-------------------------*||-----------------------|
--4-----5-----------------|--3h-0----------0--3h-0---||--5h-0------------3----|
--------------------2h-0--|--------3--5~-------------||--------3--2~----------|


                                                                        
------------------------|-----------------------|----------------------|
------------------------|-----------------------|----------------------|
--------5--4------------|-----------------------|----------------------|
--------4--4------------|-----------------------|--------------2-------|
--5--4------------5h-0--|--7h-0------------5----|--7h-0----------------|
------------------------|--------5--4~----------|--------3h-0-----0----|


                                                        
--------------------------------|----------------------|
--9----8----7----6----5----4----|--3-------------------|
--7----6----5----4----3----2----|--1-------------------|
--9----8----7----6----5----4----|--3-------------------|
--------------------------------|-------------0--3h-0--|
--------------------------------|----------------------|


                                                                               
------------------------|----------------------------|------------------------|
------------------------|----------------------------|------------------------|
------------------------|--------------2h---0--------|-----2h---0-----5h---0--|
------------------------|----------------------------|------------------------|
--5--0------------3h-5--|--5h-6h-5h-0----------3h-0--|--4----------5----------|
--------3--5------------|----------------------------|------------------------|


                                                                           
--------------------------|----9/-8----7---------|------------------------|
-----------3--2~----------|----9/-8----7---------|--9----8/-7-------------|
-----2--5-----------------|----------------------|--9----8/-7-------------|
--4-----------------------|----------------------|------------------------|
--------------------------|----------------------|---------------0--3h-0--|
---------------------0----|-----------------0----|------------------------|


                                                      
------------------------|----------------------------|
------------------------|----------------------------|
------------------------|--------------2h---0--------|
------------------------|----------------------------|
--5--0------------3h-5--|--5h-6h-5h-0----------3h-0--|
--------3--5~-----------|----------------------------|


                                                             
--------------------------|--------------|------------------|
--------------------------|--------------|------------------|
-----2--------0-----------|--------------|------------------|
-----------4-----0--------|--------------|------------------|
--4-----5-----------------|--3h-0--------|------------------|
--------------------2h-0--|--------3--5--|------------------|


                                                                               
-------------------|-------------------|-------------------|------------------|
-------------------|-------------------|----------------5--|------------------|
----------------2--|-------------------|----------------5--|------------------|
-------------------|--4----------------|-------------------|------------------|
-------------------|-------------------|-------------------|------------------|
-------------------|-------------------|-------------------|------------------|


                                                                      
-----------------------|------------------------|--------------------|
-----------------------|--5---------------------|-----------------8b-|
-----------------------|------------------------|----------x---------|
----5--7h-5--5----7----|-------7--7~---7--5--7~-|----------x---------|
-----------------------|------------------------|----------x---------|
-----------------------|------------------------|--------------------|


                                                  
------5-----8-----5--7h-|--5-----5------------5--|
---------7-----7--------|-----8-------8----------|
------------------------|----------------7r------|
------------------------|------------------------|
------------------------|------------------------|
------------------------|------------------------|


                                                           
-----------------------------------|----------------------|
--8h-5-----5-----------------------|----------------------|
--------7b----8--7h-5-----------5b-|------5b--------------|
-----------------------7h-5--0-----|---------7~-----------|
-----------------------------------|----------------------|
-----------------------------------|----------------12/---|


                                                                         
----------------------|-------------------------|-----------------------|
----------------------|-------------------------|-----------------------|
----------------------|----------------------5~-|-----------------------|
----------------------|-------------------------|------7h-5--7h-5--7----|
--3----5----3----5----|--3----5h-0--3h-0--3-----|-----------------------|
----------------------|-------------------------|-----------------------|


                                                                        
-----------------------|-------5--------5--------|--5--8b---------8b---|
-----------------------|----5--------5--------5--|---------------------|
--5-----5-----------7b-|----------7b-------7b----|---------------------|
--5--0--5--7/----------|-------------------------|---------------------|
-----------------------|-------------------------|---------------------|
-----------------------|-------------------------|---------------------|


                                                                       
--5h-8--5----3----------|--------------------14b-|--------------14~---|
------------------------|------------------------|--------------------|
----------------5~---0--|------------------------|--------------------|
------------------------|--5h-0------------------|--------------------|
------------------------|--------3---------------|--------------------|
------------------------|-----------5~-----------|--------------------|


                                                               
------12----------------------|-------------------------------|
----------13------------------|-------------------------------|
--------------14--12/-11------|--12---------------------------|
--------------------------12--|------12/-10------12h-9--9h-0--|
------------------------------|--------------12---------------|
------------------------------|-------------------------------|


                                                                          
-------------------------|--------------------|--------------------------|
-------------------------|--------------------|--------------------------|
----------------------9r-|--------------19----|--------------------------|
--7h-0--4h-0h-4h-0-------|--------------------|--5h-0--4h-0--------------|
-------------------------|--------------------|--------------5h-0--3h-0--|
-------------------------|--------------------|--------------------------|


                                                      
----------------------|------------------------------|
----------------------|------------------------------|
----------------------|------------------------------|
----------------------|------------------------------|
--3h-0--3--5~---------|---------------------5h-4h-5--|
----------------------|--17/-------4h-5h-7-----------|


                                                                     
---------------------------|-------------------|--------------------|
---------------------------|-------------------|--------------------|
--------------4---6r-------|----2--------------|--------------------|
-----4--6--7----7----------|-------------------|--------------------|
--7------------------------|-------------------|--------------------|
---------------------------|-------------------|--------------12/---|


                                                                         
---------------2-----|--5-----2--5h-2-----------|-----------------------|
----5b------------2--|-----5-----------2--5-----|-----------------------|
---------------------|-----------------------4r-|----2-------2b---4--4~-|
---------------------|--------------------------|-------4---------------|
---------------------|--------------------------|-----------------------|
---------------------|--------------------------|-----------------------|


                                                                           
----------------------|----5-----5-----5-----5--|-----5----------5--------|
-------------------8--|-------8-----8-----8-----|--8-----8----7-----7--7--|
--------18------------|-------------------------|-------------------------|
----------------5-----|-------------------------|-------------------------|
----------------------|-------------------------|-------------------------|
----------------------|-------------------------|-------------------------|


                                                                           
--5---------5---------|--5---------5-----------|--5--------5--------5-----|
--5--7r-----5--7r-----|--5--7r--------7-----5--|--------5--------5--------|
-----7r--------7r-----|-----7r-----------7-----|-----7b-------7b-------7r-|
----------------------|------------------------|--------------------------|
----------------------|------------------------|--------------------------|
----------------------|------------------------|--------------------------|


                                                                         
-----------------------|-------------------------|----------------------|
-----------------------|-------------------------|----------------------|
----5--7----5----------|-------------------------|-----------x----------|
-----------------5h-0--|-------------------------|--5~-------x----12----|
-----------------------|--5h-0--7h-0--5h-0--3----|-----------x----------|
-----------------------|-------------------------|----------------------|


                                                   
--------------------------------------------------|
--------------------------------------------------|
--------------------------------------------------|
--14h12h14h12h14h12h14h12h14h11h14h11h14h11h14h11h|
--------------------------------------------------|
--------------------------------------------------|


                                                 
------------------------------------------------|
------------------------------------------------|
------------------------------------------------|
--14h9h14h9h14h11h14h11h14h12h14h12h14h11h14h11h|
------------------------------------------------|
------------------------------------------------|


                                                             
--------------------------------------|---------------------|
--------------------------------------|------x--------------|
--------------------------------------|------x--------------|
--14h9h14h9h14h7h14h7h14h9h14h9-7--5~-|---------------------|
--------------------------------------|---------------------|
--------------------------------------|-----------12/-------|


                                                             
-------------------|--------------------|-------------------|
-------------------|--------------------|-------------------|
----5--------------|---------------5----|-------------------|
-------------------|--------------------|-------------------|
-------------------|----------0---------|------0------------|
-------------------|--------------------|------0------------|


                                                                      
-------------------|-------------------------|-------5----7----8--8--|
-------------------|----5--5--5--5--5--------|-----------------x--x--|
-------------------|----5--5--5--5--5--7--7--|--7--------------9--9--|
--0----------------|-------------------7--7--|--7--------------------|
--0----------------|-------------------------|-----------------------|
-------------------|-------------------------|-----------------------|


                                                    
------10--10------12--12--|------14--14/-----------|
------x---x-------x---x---|------x---x-------------|
------11--11------12--12--|------14--14/-----14----|
--------------------------|------------------------|
--------------------------|------------------------|
--------------------------|------------------------|


                                           
--14--14--14--14------15--15--15--15------|
--x---x---x---x-------x---x---x---x-------|
--14--14--14--14/-16--16--16--16--16/-17--|
------------------------------------------|
------------------------------------------|
------------------------------------------|


                                                                
--17--17--17--17----19--19--19--19----|----20~-----20~-----20~-|
--x---x---x---x-----x---x---x---x-----|----20~-----20~-----20~-|
--17--17--17--17----19--19--19--19----|------------------------|
--------------------------------------|------------------------|
--------------------------------------|------------------------|
--------------------------------------|------------------------|


                                                                       
--------------------19r-|--------19~-------21b-|--------21~-----------|
------------------------|----------------------|------------------17b-|
------12/-19------------|----------------------|----------------------|
------------------------|----------------------|----------------------|
------------------------|----------------------|----------------------|
------------------------|----------------------|----------------------|


                                                                              
------14------17----------|----------------------------|---------------2-----|
----------14--------------|----------------------------|------------------2--|
------------------14~-----|----------------------------|--4~-----------------|
--------------------------|--14h-12--------------2--2--|---------------------|
--------------------------|----------14h-12------------|---------------------|
--------------------------|----------------------------|---------------------|


                                                            
------------2--------------|-------------------------------|
--5------------5h-2-----2--|-------------------------------|
-----4b--------------4b----|--4h-2-------------------------|
---------------------------|--------4h-2-------------------|
---------------------------|----------------4h-2h-0--0-----|
---------------------------|----------------------------2--|


                                                                                
----------------------|------------------|------------------|------------------|
----------------------|------------------|------------------|------------------|
----------------5-----|------------------|------------------|------------------|
-------------------7~-|------------------|------------------|------------------|
----------------------|------------------|------------------|------------------|
----------17/---------|------------------|------------------|------------------|


                                                         
------------------|-------------------------------------|
------------------|-------------------------------------|
------------------|-------------------------------------|
------------------|-------------------------------------|
------------------|--12h7h6h0h6h7-12h7h6h0h6h7-12h7h6h0-|
------------------|-------------------------------------|


                                      
-------------------------------------|
-------------------------------------|
-------------------------------------|
-------------------------------------|
--12h7h6h0h6h7-12h7h6h0h6h7-12h7h6h0-|
-------------------------------------|


                                           
------------------------------------------|
------------------------------------------|
------------------------------------------|
------------------------------------------|
--15h12h9h0h9h12-15h12h9h0h9h12-15h12h9h0-|
------------------------------------------|


                                           
------------------------------------------|
------------------------------------------|
------------------------------------------|
------------------------------------------|
--15h12h9h0h9h12-15h12h9h0h9h12-15h12h9h0-|
------------------------------------------|


                                           
------------------------------------------|
------------------------------------------|
------------------------------------------|
------------------------------------------|
--17h10h8h0h8h10-17h10h8h0h8h10-17h10h8h0-|
------------------------------------------|


                                           
------------------------------------------|
------------------------------------------|
------------------------------------------|
------------------------------------------|
--17h10h8h0h8h10-17h10h8h0h8h10-17h10h8h0-|
------------------------------------------|


                                                                             
-------------------------------------|--------------------------------------|
-------------------------------------|--------------------------------------|
-------------------------------------|--------------------------------------|
-------------------------------------|--------------------------------------|
--12h7h5h0h6h8-13h8h6h0h7h9-14h9h7h0-|--15h10h8h0h7h9-14h9h7h0h6h8-13h8h6h0-|
-------------------------------------|--------------------------------------|


                                                                            
-------------------------------------|-------------------------------------|
-------------------------------------|-------------------------------------|
-------------------------------------|-------------------------------------|
-------------------------------------|-------------------------------------|
--12h7h6h0h6h7-12h7h6h0h6h7-12h7h6h0-|--12h7h6h0h6h7-12h7h6h0h6h7-12h7h6h0-|
-------------------------------------|-------------------------------------|


                                           
------------------------------------------|
------------------------------------------|
------------------------------------------|
------------------------------------------|
--15h12h9h0h9h12-15h12h9h0h9h12-15h12h9h0-|
------------------------------------------|


                                           
------------------------------------------|
------------------------------------------|
------------------------------------------|
------------------------------------------|
--15h12h9h0h9h12-15h12h9h0h9h12-15h12h9h0-|
------------------------------------------|


                                           
------------------------------------------|
------------------------------------------|
------------------------------------------|
------------------------------------------|
--17h10h8h0h8h10-17h10h8h0h8h10-17h10h8h0-|
------------------------------------------|


                                           
------------------------------------------|
------------------------------------------|
------------------------------------------|
------------------------------------------|
--17h10h8h0h8h10-17h10h8h0h8h10-17h10h8h0-|
------------------------------------------|


                                           
------------------------------------------|
------------------------------------------|
------------------------------------------|
------------------------------------------|
--16h11h9h0h9h11-16h11h9h0h9h11-16h11h9h0-|
------------------------------------------|
Calificar esta versión:
Aviso: Este fichero es trabajo propio de su transcriptor y representa su interpretación personal de la canción. El material contenido en esta página es para exclusivo uso privado, por lo que se prohibe su reproducción o retransmisión, así como su uso para fines comerciales.