Flying In A Blue Dream, Joe Satriani (tablatura)

Autor: Iñigo17 | 20244 visualizaciones

Joe Satriani
Flying in a blue dream
E--------2--2-----0---------------------------------------------------| 
B------3----3-----1-------------------3--3-----1----------0--0--------| 
G----0------0-----0----------------1--3--3-----1--------0----0-----2--| 
D--------------------(REPEAT)----1--------------------0------------3--| 
A--3-----------3------------------------------------------------------| 
E------------------------------4------------4------1------------1-----| 
 
 
E---------------------------------------------2--2------0---| 
B--------2--2-----0---------0-0-------------3----3------1---| 
G------0----0-----0-------0---0-----2-----0------0------0---| 
D----0------------------0-----------3-----------------------| 
A---------------------------------------3-----------3-------| 
E--3-----------3-----1-----------1--------------------------| 
 
 
E-------1--1--1--1--1----------------| 
B-------1--1--1--1--1----------------| 
G-------3--3--3--2--2-------5--5--5--| 
D-------3--3--3--3--3-------5--5--5--| 
A----------------------5^3--3--3--3--| 
E--5^3-------------------------------| 

^-Bend
Calificar esta versión:
Aviso: Este fichero es trabajo propio de su transcriptor y representa su interpretación personal de la canción. El material contenido en esta página es para exclusivo uso privado, por lo que se prohibe su reproducción o retransmisión, así como su uso para fines comerciales.