Drugs Or Me, Jimmy Eat World (tablatura)

Autor: ELKERP | 28608 visualizaciones

e|--------------------------------------------------------------------|
B|-----9----9--------9----9--------9----9--------9----9---------------|
G|---10---10---10--10---10---10--10---10---10--10---10---10-----------|
D|-11---11---11--11---11---11--10---10---10--10---10---10-------------|
A|--------------------------------------------------------------------|
E|--------------------------------------------------------------------|

e|--------------------------------------------------------------------|
B|-----7----7--------7----7--------6-----6-----4-----4----4-6---------|
G|---6----6----6---6----6----6---6-----6-----6-----6?---6-------------|
D|-8----8----8---8----8----8---6-----6-----6-----6----6---------------|
A|--------------------------------------------------------------------|
E|--------------------------------------------------------------------|

Comentarios del colaborador: No es mucho pero algo es algo

Calificar esta versión:
Aviso: Este fichero es trabajo propio de su transcriptor y representa su interpretación personal de la canción. El material contenido en esta página es para exclusivo uso privado, por lo que se prohibe su reproducción o retransmisión, así como su uso para fines comerciales.