23, Jimmy Eat World (tablatura)

Autor: ELKERP | 43994 visualizaciones

e|------------------------------------.-----------------------------------|
B|-----------3-----3---------3--------.-----------------------------------|
G|-----------2-----2---------2--------.----------2-----2---------2--------|
D|-----------0-----0---------0--------.----------2-----2---------2--------|
A|--2-2-2-2----2-2---2-2-2-2---2-2-2--.--0-0-0-0---0-0---0-0-0-0---0-0-0--|
D|------------------------------------.-----------------------------------|


e|------------------------------0-----.-----------------------------0-----|
B|----------------------------3-------.---------------------------3-------|
G|------------------------------------.-----------------------------------|
D|------------------------------------.-----------------------------------|
A|------------------------------------.-----------------------------------|
D|------------------------------------.-----------------------------------|





e|------------------------------------.-----------------------------------|
B|------------------------------------.-----------------------------------|
G|----------2-----2---------2---------.----------2-----2---------2--------|
D|----------0-----0---------0---------.----------0-----0---------0--------|
A|------------------------------------.-----------------------------------|
D|--0-0-0-0---0-0---0-0-0-0---0-0-0---.--5-5-5-5---5-5---5-5-5-5---5-5-5--|


e|-----------------------------------.-----------------------------------|		
B|-----------------------------------.-----------------------------------|	
G|----------7-----7---------7--------.----------7-----7---------7--------|	
D|----------7-----7---------7--------.----------7-----7---------7--------|	
A|-----------------------------------.-----------------------------------|	
D|--0-0-0-0---0-0---0-0-0-0---0-0-0--.--5-5-5-5---5-5---5-5-5-5---5-5-5--|


e|------------------------------0-----.-----------------------------0-----|
B|----------------------------3-------.---------------------------3-------|
G|------------------------------------.-----------------------------------|
D|------------------------------------.-----------------------------------|
A|------------------------------------.-----------------------------------|
D|------------------------------------.-----------------------------------|




e|----------------------5-5-5-5-5-5-5--.-----------------------3-3-3-3-3-3-3--|
B|--0-0-0--2-2-2--3-3-3----------------.--0-0-0--2-2-2--3-3-3-----------------|
G|-------------------------------------.--------------------------------------|
D|-------------------------------------.--------------------------------------|
A|-------------------------------------.--------------------------------------|
D|-------------------------------------.--------------------------------------|

e|--2-2-2-2-2-2-2-2--0-0--5-5-5-2-2-2-2-2-2-2-2-2-2--------------|
B|--------------------------------------------------5-5-3-3-2-2--|
G|---------------------------------------------------------------|
D|---------------------------------------------------------------|
A|---------------------------------------------------------------|
D|---------------------------------------------------------------|

e|----------------------5-5-5-5-5-5-5--.-----------------------3-3-3-3-3-3-3--|
B|--0-0-0--2-2-2--3-3-3----------------.--0-0-0--2-2-2--3-3-3-----------------|
G|-------------------------------------.--------------------------------------|
D|-------------------------------------.--------------------------------------|
A|-------------------------------------.--------------------------------------|
D|-------------------------------------.--------------------------------------|

e|--2-2-2-2-2-2-2-2--0-0--5-5-5-2-2-2-2-2-2-2-2-2-2------------------------------|
B|--------------------------------------------------5-5-3-3-2-2--|
G|-------------------------------------------------------------------------------|
D|-------------------------------------------------------------------------------|
A|-------------------------------------------------------------------------------|
D|-------------------------------------------------------------------------------|





  Bm                 A     D                   G
I felt for sure last night at once we said goodbye
       Bm		     A
no one else will know these lonely dreams
       D		  G
no one else will know that part of me
    Bm              A          D            G
I'm still driving away and I'm sorry every day
        Bm                A
I won't always love these selfish things
           D           G
I won't always live... no, stop it...




It was my turn to decide, I knew this was our time
no one else will have me like you do
no one else will have me, only you




Em	  	    G           	      D
you'll sit alone forever if you wait for the right time
	      A
what are you hoping for?
    Em		      G (Gm?)		D
I'm here and now I'm ready, holding on tight
		    A				           don't give away the end, the one thing that stays mine



Amazing still it seems, I'll be 23
I won't always love what I'll never have
I won't always live in my regrets




You'll sit alone forever if you wait for the right time
What are you hoping for?
I'm here and now I'm ready, holding on tight
don't give away the end, the one thing that stays mine




e|-------------------------------------------10-----10-----10--|
B|--15-15-15--14-14-14--12-12-12--10/8---7h8----7h8----7h8-----|
G|-------------------------------------------------------------|
D|-------------------------------------------------------------|
A|-------------------------------------------------------------|
E|-------------------------------------------------------------|

e|----------------------------------------------------|
B|--15-15-15--14-14-14--12-12-12--10/8--7--8p7--------|
G|---------------------------------------------9--9b--|
D|----------------------------------------------------|
A|----------------------------------------------------|
E|----------------------------------------------------|

e|-------------------------------17-17-17--.--------------------------------17-17-17--|
B|--17-17-17--19-19-19--15-15-15-----------.--17-17-17--19-19-19--15-15-15------------|
G|-----------------------------------------.------------------------------------------|
D|-----------------------------------------.------------------------------------------|
A|-----------------------------------------.------------------------------------------|
E|-----------------------------------------.------------------------------------------|

e|--17-15-14-14---17-15-14-14--.--17-15-14-----17-15-14------------------------------|
B|-----------------------------.-----------17-----------17--17b(18)r17--15-15-15-15--|
G|-----------------------------.-----------------------------------------------------|
D|-----------------------------.-----------------------------------------------------|
A|-----------------------------.-----------------------------------------------------|
E|-----------------------------.-----------------------------------------------------|

.--------17--------------------|
.--14-15-----------------------|
.------------------------------|
.------------------------------|
.------------------------------|
.------------------------------|





	D	    Asus4		      Bm
You'll sit alone forever if you wait for the right time
	      G
What are you hoping for?
     D		      A			Bm
I'm here and now I'm ready, holding on tight
		    G				   D
don't give away the end, the one thing that stays mine...




e|----0---------0-----------------------|
B|--3--------3--------repeat till fade--|
G|--------------------------------------|
D|--------------------------------------|
A|--------------------------------------|
D|--------------------------------------|

Comentarios del colaborador: Ojala les guste como dije... voy a subir mas rolas de la banda

Calificar esta versión:
Aviso: Este fichero es trabajo propio de su transcriptor y representa su interpretación personal de la canción. El material contenido en esta página es para exclusivo uso privado, por lo que se prohibe su reproducción o retransmisión, así como su uso para fines comerciales.