Wild Thing, Jimi Hendrix (tablatura)

Autor: sebas1212 | 24510 visualizaciones



A
|---------------0----------------0-----------------0-------------0--|
|----------3-3--0-----------3-3--0---------x--3-3--0--------3-3--0--|
|-2-2---02-2-2-----1-1---02-2-2-------2-2--x--2-2-----1-1---2-2-----|
|-2-2---02-0-0-----2-2---02-0-0-------2-2--x--0-0-----2-2---0-0-----|
|-0-0--------------2-2----------------0-0--x----------2-2-----------|
|------------------0-0--------------------------------0-0-----------|


B
|------------0------------0------------0----------|
|-------3-3--0-------3-3--0-------3-3--0----------|
|-2-2---2-2-----1-1--2-2-----2-2--2-2-----1-1-----|
|-2-2---0-0-----2-2--0-0-----2-2--0-0-----2-2-----|
|-0-0-----------2-2----------0-0----------2-2-----|
|---------------0-0-----------------------0-0-----|

|----------------------------------------------|
|----------------------------------------------|
|---5--7--5--7---------5--7--5--7--------------|
|---5--7--5--7---------5--7--5--7--------------|
|---3--5--3--5---------3--5--3--5-------312/3-|


C
|------------0------------0--| 
|-------3-3--0-------3-3--0--| 
|-2-2---2-2-----1-1--2-2-----| 
|-2-2---0-0-----2-2--0-0-----| 
|-0-0-----------2-2----------| 
|---------------0-0----------|





Calificar esta versión:
Aviso: Este fichero es trabajo propio de su transcriptor y representa su interpretación personal de la canción. El material contenido en esta página es para exclusivo uso privado, por lo que se prohibe su reproducción o retransmisión, así como su uso para fines comerciales.