Voodoo Child (intro) 1 Version, Jimi Hendrix (tablatura)

Autor: slash the bestt | 21953 visualizaciones



1--------------------------------------------------------------
2--------------------------------------------------------------
3--9-7----7-------------------9-7----9-9--7--------------------
4------9--------5-5--7-------------9----------------------------
5----------------------7---------------------------------------
6--------------------------------------------------------------
                        (x2)

1---------------------------------------------------------------
2---------------------------------------------------------------
3--9--7-----7---12e---------------------------------------------
4 -------9-----------------------------------------------------
5--------------------------------------------------------------
6---------------------------------------------------------------

referencias:
e: estirar





Calificar esta versión:
Aviso: Este fichero es trabajo propio de su transcriptor y representa su interpretación personal de la canción. El material contenido en esta página es para exclusivo uso privado, por lo que se prohibe su reproducción o retransmisión, así como su uso para fines comerciales.