Purple Haze (intro), Jimi Hendrix (tablatura)

Autor: GOIACDC | 30546 visualizaciones

Este es el intro autentico
/=Slide
b=Bending
~=Vibrato

|---------------------|
|---------------------|
|---------------------|
|----7---7---7---7----|
|---------------------|
|--5---5---5---5------|


|---------------------------|---------------------------|
|-------8b------------------|-------8b------------------|
|-----7---------------------|-----7---------------------|
|--/9------7~---/5----------|--/9------7~---/5----------|
|------------------5---5/7~-|------------------5---5/7~-|
|--------------------0------|--------------------0------|

|-----------------------|-------------------------------------|
|-----------------------|-------------------------------------|
|-----------------------|----------------------------7--7-7-9-|
|-----5-7b-5---5--------|-----5-7b-5-7---5--0-0-5/9-----------|
|--/7------------0-3----|--/7---------------------------------|
|--------------------3--|-------------------------------------|

Comentarios del colaborador: Lo saque de youtube. esta es la direccion: http://www.youtube.com/watch?v=323ahe2E-CM&feature=channel_page

Calificar esta versión:
Aviso: Este fichero es trabajo propio de su transcriptor y representa su interpretación personal de la canción. El material contenido en esta página es para exclusivo uso privado, por lo que se prohibe su reproducción o retransmisión, así como su uso para fines comerciales.