Foxy Lady, Jimi Hendrix (tablatura)

Autor: [anoni]Franco Rodriguez!...[anoni] | 21974 visualizaciones



e|-------5-5-----5-5-----5-5----------5-5----5-5-----5-5---------| Riff x3
b|-------5-5-----5-5-----5-5----------5-5----5-5-----5-5---------|
g|-------5-5-----5-5-----5-5----4-----5-5----5-5-----5-5---------|
d|-----------4-4----------------4---------4-4--------------------|
a|----------------------------2--------------------------0-2-3-4-|
e|---2-2-------------2-2-----0----2-2------------2-2-------------|

Foxy...
Foxy...
You know you're a cute little heartbreaker
Foxy...
You know you're a sweet little lovemaker
Foxy...

e|---------------------------------|
b|---------------------------------|
g|-----------------1-1-1-1-4-4-4-4-|
d|-4-4-4-4-4-4-4-4-2-2-2-2-4-4-4-4-|
a|-4-4-4-4-4-4-4-4-2-2-2-2-2-2-2-2-|
e|-2-2-2-2-2-2-2-2-0-0-0-0---------|

I wanna take you home, yeah

e|--------------------------------|
b|--------------------------------|
g|-----------------1-1-1-1--------|
d|-4-4-4-4-4-4-4-4-2-2-2-2----4h6-|
a|-4-4-4-4-4-4-4-4-2-2-2-2-4-6----|
e|-2-2-2-2-2-2-2-2-0-0-0-0--------|

I won't do you no harm, no

e|---------------------------------1-|
b|---------------------------------0-|
g|-----------------1-1-1-1-4-4-4-4-3-|
d|-4-4-4-4-4-4-4-4-2-2-2-2-4-4-4-4-0-|
a|-4-4-4-4-4-4-4-4-2-2-2-2-2-2-2-2-4-|
e|-2-2-2-2-2-2-2-2-0-0-0-0---------2-|

You've got to be all mine, all mine
Ooh, foxy lady

e|--------------------------|
b|--------------------------|
g|-1/-16b-14-16b-16b-14-----|
d|----------------------\16-|
a|--------------------------|
e|--------------------------|

Riff





Comentarios del colaborador: espero que lo disfrute!. :d

Calificar esta versión:
Aviso: Este fichero es trabajo propio de su transcriptor y representa su interpretación personal de la canción. El material contenido en esta página es para exclusivo uso privado, por lo que se prohibe su reproducción o retransmisión, así como su uso para fines comerciales.