Eso Y Mas, Jhoan Sebastian (tablatura)

Autor: jazzrapsody | 43109 visualizaciones



e|-----0-----0------2--------------2--0------0---->
b|-----0/2---0------3-----------3--------2---2---->
g|------------------2-------22---------------2---->
d|-------------------------------------------2---->
a|-------------------------------------------0---->
e|------------------------------------------------>
el modo original es diferente pro m gusta mas asi: (es casi lo mismo :P)

e|-----0-----0------2------------------------------->
b|-----0/2---0------3--------------7-----5------2--->
g|------------------2--------------7-----6------2--->
d|-----------------------------77------------------->
a|-------------------------------------------------->
e|-------------------------------------------------->

LOS BAJEOS SON CUANDO CANTA:
bajeo 1º:

d|--------------------------------------->
a|-----2----h4--------2---0------2----0-->
e|--------------------------------------->

bajeo 2º:

d|--------------------->
a|---4--2--0-----0----->
e|--------------------->

final
e|-----0-----0------2--------------2--0------0---->
b|-----0/2---0------3-----------3--------2---2---->
g|------------------2-------22---------------2---->
d|-------------------------------------------2---->
a|-------------------------------------------0---->
e|------------------------------------------------>

e|-----0-----0------2-----------------------------------0-->
b|-----0/2---0------3---------------7-----------------2---->
g|------------------2---------------7------6--------2------>

ps esto es todo de esta romanticona cancion :)





Comentarios del colaborador: :)

Calificar esta versión:
Aviso: Este fichero es trabajo propio de su transcriptor y representa su interpretación personal de la canción. El material contenido en esta página es para exclusivo uso privado, por lo que se prohibe su reproducción o retransmisión, así como su uso para fines comerciales.