Alazad Ho Puertas, Jesus Adrian Romero (bajo)

Autor: Anónimo | 34826 visualizaciones

Intro:
Empiezan los strings y luego:
B---------------------------|--------------------------|
E--------------4--6---------|--------------4--6--------|
A---6--8-8--4--------4--6---|---6--8-8--4--------4--6--|
D---------------------------|--------------------------|
G---------------------------|--------------------------|
2 veces.
Estrofa:
B---------------------------|--------------------------|
E--------------4--6---------|--------------4--6--------|
A---6--8-8--4--------4--6---|---6--8-8--4--------4--6--|
D---------------------------|--------------------------|
G---------------------------|--------------------------|
2 veces
Y entrará...
B-----------------------|
E----4-4---6--7---------|
A-----------------6-6---|
D-----------------------|
G-----------------------|
-Intro 1 vez
-Estrofa.

Para entrar al coro:
B---------------------|
E---------------------|
A---6---2---2-3-4-----|
D---------------------|
G---------------------|

Poderoso...
B---------------------------|--------------------------|
E---------------------------|--------------------------|
A--2-2--3-3---14--14--------|--2-2--3-3---14--14-------|
D---------------------------|--------------------------|
G---------------------------|--------------------------|

B------------------|-----------------|
E------------------|-----------------|
A--2-2--3--5--6----|--6-6--6--2--4---|
D------------------|-----------------|
G------------------|-----------------|

Coro:
B---------------------------------------|----------------------------|
E-------2-2---------4-4---6-7----16-18--|--4-4---6-6--7-7------------|
A--6-6----------------------------------|------------------4--6------|
D------------4-4------------------------|----------------------------|
G---------------------------------------|----------------------------|
2 veces

-Intro 1 vez.
-Estrofa 2 veces
-Antecoro.
-Coro

Esta es la parte lenta:
B-----------------------|
E-----------------------|
A--6---4---2----6---4---|
D-----------------------|
G-----------------------|

Coro 3 veces

Final:
B---------------------------|---------------------------------------|
E--------------4--6---------|----------4--6-------------------------|
A---6--8-8--4--------4--6---|--6--8-8--------4--6----------------6--|
D---------------------------|-----------------------6--8------------|
G---------------------------|----------------------------6--8-------|
2 veces.

Comentarios del colaborador: Bueno hola y bendiciones para todos espero que le guste la cancion y es mi primera transcripcion bendiciones para la Asamblea de dios de chillan ........

Calificar esta versión:
Aviso: Este fichero es trabajo propio de su transcriptor y representa su interpretación personal de la canción. El material contenido en esta página es para exclusivo uso privado, por lo que se prohibe su reproducción o retransmisión, así como su uso para fines comerciales.