Sexo Sin Amor, Jessy Bulbo (bajo)

Autor: ---julio--- | 30451 visualizaciones

Intro:

G  -----------------------------------------------
D  ----------------------------------------------- (x3)
A  --0-0?3-3 --0-0--------------------------------
E  -----------------3--3-3------------------------


Verso

G  -----------------------------------------------
D  -----------------------------------------------
A  --0-0--3~ --0-0----------0-0--3-3--0-0---------
E  -----------------3--3-3-----------------3--3-3-

     y   me gus ta a  a a
G  -----------------------------------------------
D  -----------------------------------------------
A  --12--10--9--8--7--5?3--3-3-3/ 12--------------
E  -----------------------------------------------

     y    men   can  ta    a    a  a
G  -----------------------------------------------
D  -----------------------------------------------
A  --12--10-10--9-9--8-8--7-7--5-5--3~ -----------
E  -----------------------------------------------

Coro

G  -----------------------------------------------
D  -----------------------------------------------
A  --2--5-5--3-3--5~ --2--5-5?3-3--5--5-5-5-------
E  -----------------------------------------------


G  -----------------------------------------------
D  -----------------------------------------------
A  --2--5-5--3-3--5/ 7--7*-8*-10-8----------------
E  -----------------------------------------------


~  Vibrato: Dejar vibrar la cuerda
/  Slide up: Arrastrar de grave a agudo
*  Stop string: Parar la cuerda


SaLudoOoOox...pAreN orEja paQ sEpaN eN dóNde
va kadA Riff
y veRáN qEsta roLa sTá fácil y divErtidA?
Calificar esta versión:
Aviso: Este fichero es trabajo propio de su transcriptor y representa su interpretación personal de la canción. El material contenido en esta página es para exclusivo uso privado, por lo que se prohibe su reproducción o retransmisión, así como su uso para fines comerciales.