Dulce Pecado, Jessi Uribe (tablatura)

Autor: steven123 | 202 visualizaciones

Dulce Pecado  
Jessi Uribe  
  
 
Music by Steven Baldeon  
 
 
 
(A) |--2--0----------|--2-----3----------|-----5-----5-----5----|  
(E) |--------3--2----|-----------3--5----|--7-----7-----7-------|  
(C) |----------------|-------------------|----------------------|  
(G) |----------------|-------------------|----------------------|  
(D) |----------------|-------------------|----------------------|  
(A) |----------------|-------------------|----------------------|  
 
 
-----5-----5----------|--0----------|--0-----2-------|-----3-----3-----3----|  
--7-----7-----7-------|-----3--2----|--------3--2----|--5-----5-----5-------|  
----------------------|-----4-------|----------------|----------------------|  
----------------------|-------------|----------------|----------------------|  
----------------------|-------------|----------------|----------------------|  
----------------------|-------------|----------------|----------------------|  
 
 
-----3-----3----------|--7-----------7-------|--7-----7-----7----------|  
--5-----5-----5-------|--8--------10-8--10---|--8-----8--10-8--10------|  
----------------------|-----------11----11---|-----------11----11------|  
----------------------|----------------------|-------------------------|  
----------------------|----------------------|-------------------------|  
----------------------|----------------------|-------------------------|  
 
 
--7-----7-----7----------|--7--7--10---|--9-----9----|--7-----7----|  
--8-----8--10-8--10------|--8--8--12---|--10----10---|--8-----8----|  
-----------11----11------|-------------|-------------|-------------|  
-------------------------|-------------|-------------|-------------|  
-------------------------|-------------|-------------|-------------|  
-------------------------|-------------|-------------|-------------|  
 
 
--5-----5----|--3-----3----|--2----|----|----|----|----|----|----|----|----|  
-------------|-------------|-------|----|----|----|----|----|----|----|----|  
--6-----6----|--4-----4----|--2----|----|----|----|----|----|----|----|----|  
-------------|-------------|-------|----|----|----|----|----|----|----|----|  
-------------|-------------|-------|----|----|----|----|----|----|----|----|  
-------------|-------------|-------|----|----|----|----|----|----|----|----|  
 
 
----|----|----|----|----|-----9--7----|--5-----3----|--2----------|----|----|  
----|----|----|----|----|-----10-8----|--7-----5----|--3----------|----|----|  
----|----|----|----|----|-------------|-------------|-------------|----|----|  
----|----|----|----|----|-------------|-------------|-------------|----|----|  
----|----|----|----|----|-------------|-------------|-------------|----|----|  
----|----|----|----|----|-------------|-------------|-------------|----|----|  
 
 
-----10-9----|--7----|----|----------------------|--7-----5----|--3----|----|  
-----12-10---|--8----|----|-----------8-----8----|--8-----7----|--5----|----|  
-------------|-------|----|--------7-----7-------|-------------|-------|----|  
-------------|-------|----|-----9----------------|-------------|-------|----|  
-------------|-------|----|----------------------|-------------|-------|----|  
-------------|-------|----|----------------------|-------------|-------|----|  
 
 
--------3--2--3--2----|--3----|--2----|-------------|--------0----|  
--------5--4--5--4----|--5----|--3----|--------3----|--2--3--2----|  
----------------------|-------|--2----|--------4----|--2--4-------|  
----------------------|-------|--4----|-------------|-------------|  
----------------------|-------|-------|-------------|-------------|  
----------------------|-------|-------|-------------|-------------|  
 
 
--2--3--5----|--2----|----|--------10----10------|--10---|-----5--5----|--5----|  
--3--5--7----|--3----|----|-----10----10----10---|-------|-------------|-------|  
-------------|-------|----|----------------------|-------|-----6--6----|--6----|  
-------------|-------|----|----------------------|-------|-------------|-------|  
-------------|-------|----|----------------------|-------|-------------|-------|  
-------------|-------|----|----------------------|-------|-------------|-------|  
 
 
-----5--5----|--5-----4----|--3----|-----3--5----|--7----|-------------|  
-------------|-------------|-------|-------------|-------|-------------|  
-----6--6----|--6-----5----|--4----|-----4--6----|--7----|--------2s---|  
-------------|-------------|-------|-------------|-------|-------------|  
-------------|-------------|-------|-------------|-------|-------------|  
-------------|-------------|-------|-------------|-------|-------------|  
 
 
-----3-------------|----|-----9--7----|--5-----3----|--2----|--------3----|  
-------------------|----|-----10-8----|--7-----5----|--3----|--------5----|  
--4--4-------------|----|-------------|-------------|-------|-------------|  
-------------------|----|-------------|-------------|-------|-------------|  
-------------------|----|-------------|-------------|-------|-------------|  
-------------------|----|-------------|-------------|-------|-------------|  
 
 
--5----|--------2----|--0----|----|--------9----|--9-----8----|--7----|  
--7----|--------3----|--2----|----|-------------|-------------|-------|  
-------|-------------|-------|----|-----7s-9----|--9-----8----|--7----|  
-------|-------------|-------|----|-------------|-------------|-------|  
-------|-------------|-------|----|-------------|-------------|-------|  
-------|-------------|-------|----|-------------|-------------|-------|  
 
 
-------------|-----7----|----|----|----|-------------|--0----|--10----9----|  
-------------|----------|----|----|----|-----2--3----|--2----|--7----------|  
--------5s---|--7-------|----|----|----|-----2--4----|-------|--------9----|  
-------------|----------|----|----|----|-------------|-------|-------------|  
-------------|----------|----|----|----|-------------|-------|-------------|  
-------------|----------|----|----|----|-------------|-------|-------------|  
 
 
--10----12---|-----14----14----14---|--14---|--9-----7----|--9-----10---|  
--7----------|----------------------|-------|--5----------|--5----------|  
--------12---|--14----14----14------|--14---|--------7----|--------11---|  
-------------|----------------------|-------|-------------|-------------|  
-------------|----------------------|-------|-------------|-------------|  
-------------|----------------------|-------|-------------|-------------|  
 
 
-----12----12----12---|--12---|--7-----6----|--7-----9----|--10----9----|  
----------------------|-------|--8-----7----|--8-----10---|--12----10---|  
--12----12----12------|--12---|-------------|-------------|-------------|  
----------------------|-------|-------------|-------------|-------------|  
----------------------|-------|-------------|-------------|-------------|  
----------------------|-------|-------------|-------------|-------------|  
 
 
--7----|--5--3--2----|--3--2--3----|--5----|--3--2--0----|-------|----|----|  
--8----|--7--5--3----|--5--3--5----|--7----|-------------|--3----|----|----|  
-------|-------------|-------------|-------|--4--2--0----|-------|----|----|  
-------|-------------|-------------|-------|-------------|--4----|----|----|  
-------|-------------|-------------|-------|-------------|-------|----|----|  
-------|-------------|-------------|-------|-------------|-------|----|----|  
 
 
----|----|----|----|----|----|----|----|----|----|----|--5-----3----|  
----|----|----|----|----|----|----|----|----|----|----|-------------|  
----|----|----|----|----|----|----|----|----|----|----|--6-----4----|  
----|----|----|----|----|----|----|----|----|----|----|-------------|  
----|----|----|----|----|----|----|----|----|----|----|-------------|  
----|----|----|----|----|----|----|----|----|----|----|-------------|  
 
 
--2-----0----|-------|-----10t10t--|--10t10t10t--|--10t10t10t--|--9t-9t-9t---|  
-------------|--3----|-------------|-------------|-------------|-------------|  
--2-----0----|-------|-------------|-------------|-------------|-------------|  
-------------|--4----|-------------|-------------|-------------|-------------|  
-------------|-------|-------------|-------------|-------------|-------------|  
-------------|-------|-------------|-------------|-------------|-------------|  
 
 
--9t-9t-9t---|--9t-9t-9t---|--9--9--8----|--7----|----------------------|  
-------------|-------------|--5--5--4----|--3----|--------------8-------|  
-------------|-------------|-------------|-------|-----------7----------|  
-------------|-------------|-------------|-------|--------9-------------|  
-------------|-------------|-------------|-------|----------------------|  
-------------|-------------|-------------|-------|----------------------|  
 
 
--7----|----|----|-------|--5--3--2----|--3--2--0----|-------|-----2--3----|  
--8----|----|----|-------|-------------|-------------|--3----|-----3--5----|  
--7----|----|----|-------|--6--4--2----|--4--2--0----|-------|-------------|  
--9----|----|----|-------|-------------|-------------|--4----|-------------|  
-------|----|----|-------|-------------|-------------|-------|-------------|  
-------|----|----|-------|-------------|-------------|-------|-------------|  
 
 
--5----|----|--------9-----9----------------|--9----|--------9-----9-------|  
--7----|----|-------------------------------|-------|----------------------|  
-------|----|-----9-----9-----9-------------|-------|-----9-----9-----9----|  
-------|----|-------------------------------|-------|----------------------|  
-------|----|-------------------------------|-------|----------------------|  
-------|----|-------------------------------|-------|----------------------|  
 
 
--9--9--8----|--7----|----------------------|--7----|----|----|----|----|----|  
-------------|-------|--------------8-------|--8----|----|----|----|----|----|  
--9--9--8----|--7----|-----------7----------|--7----|----|----|----|----|----|  
-------------|-------|--------9-------------|--9----|----|----|----|----|----|  
-------------|-------|----------------------|-------|----|----|----|----|----|  
-------------|-------|----------------------|-------|----|----|----|----|----|  
 
 
--10-------10------|--10-------10------|--10-------10------|--10-10-10---|  
--7--------7-------|--7--------7-------|--7--------7-------|--7--7--7----|  
-------------------|-------------------|-------------------|-------------|  
-------------------|-------------------|-------------------|-------------|  
-------------------|-------------------|-------------------|-------------|  
-------------------|-------------------|-------------------|-------------|  
 
 
--9--------9-------|--9--------9-------|--9--------9-------|--9--9--8----|  
--5--------5-------|--5--------5-------|--5--------5-------|--5--5--4----|  
-------------------|-------------------|-------------------|-------------|  
-------------------|-------------------|-------------------|-------------|  
-------------------|-------------------|-------------------|-------------|  
-------------------|-------------------|-------------------|-------------|  
 
 
--7----|----------------------|--7----|----|----|----|----|----|  
--3----|-----------8-----8----|--8----|----|----|----|----|----|  
-------|--------7--7--7--7----|-------|----|----|----|----|----|  
-------|--------9-----9-------|-------|----|----|----|----|----|  
-------|----------------------|-------|----|----|----|----|----|  
-------|----------------------|-------|----|----|----|----|----|  
 
 
--------7--6--7--6----|--7----|--------5--4--5--4----|--5-----3----|  
--------8--7--8--7----|--8----|--------7--6--7--6----|--7-----5----|  
----------------------|-------|----------------------|-------------|  
----------------------|-------|----------------------|-------------|  
----------------------|-------|----------------------|-------------|  
----------------------|-------|----------------------|-------------|  
 
 
--2-----5----|--10---||  
--3----------|-------||  
--------6----|--11---||  
-------------|-------||  
-------------|-------||  
-------------|-------||
Calificar esta versión:
Aviso: Este fichero es trabajo propio de su transcriptor y representa su interpretación personal de la canción. El material contenido en esta página es para exclusivo uso privado, por lo que se prohibe su reproducción o retransmisión, así como su uso para fines comerciales.