Estas Conmigo, Jerau (acordes)

Autor: Stevens | 39827 visualizaciones

adefsosm
 ESTO ES PARA TI GREISSY  “MI GATITA TE AMO” MA MOR RECUERDA
QUE “ESTAS CON MIGO”


INTRO:

E---------------------------------------------------------------
B-------------9---10--------9---10---12---10---9---------------9
G---9---11-------------11-----------------------------9---9---11
D---------------------------------------------------------------
A---------------------------------------------------------------
E---------------------------------------------------------------

E---------------------------------------------------------------
B--10---9--------------------- 6---7---9---10---9---7---6-------
G------------11---7---7---7-------------------------------------
D---------------------------------------------------------------
A---------------------------------------------------------------
E---------------------------------------------------------------

E---------------------------------------------------------------
B---------------------------------------------------------------
G---------------------------------------------------------------
D---------------------------------------------------------------
A-0---3---4---5---4---0---4---5---4--2----0---------------------
E---------------------------------------------------------------





        F#m                    E                               
Hola que tal, fue lo primero que te dije el día en que te
      F#m
conocí,
                                    E                    A 
y sin pensar, que volvería a verte así tan triste y poco sonreír,
                                       E
sin preguntar, te fui secando aquellas lagrimas de un amor que se
A
quiso ir,
                                E                             
con un adiós, como cuando la luna anocheciendo va y despide al
 F#m
sol,
         D                  F#m
no es su lugar, no es donde esta,
        A                       E
y si da miedo preguntar no te preocupes,


CORO:
             A                                E
Que estás conmigo mi amor, muñequita de mis sueños ven a mi,
     F#m                       D
y quédate aquí mismito, pon tu alma a digerir,
           A                  E
bellos momentos, cosas mas bonitas,
         F#m                D     A 
búscale sentido, tu lo necesitas,
                 E
no te preocupes que estas conmigo.


A   E   F#m     D


       F#m                              E                  F#m  
Un despertar, cada mañana a ti te espera con momentos para amar,
                      E                  A  E  A 
sin ocultar, que te deseo y si te tengo ay no me puedo controlar,
                      E
sin preguntar, me fui acercando en un instante un poco mas cerca de
  F#m
 ti,
                                 E                         F#m
y tu mirar, me respondía con caricias embriagando mi sentir,
         D              F#m
no puedo ser, tu sombra ya,
         A                          E
y donde quiera que tu vas no te preocupes.


CORO:
             A                                E
Que estás conmigo mi amor, muñequita de mis sueños ven a mi,
     F#m                       D
y quédate aquí mismito, pon tu alma a digerir,
           A                  E
bellos momentos, cosas mas bonitas,
         F#m                D     A 
búscale sentido, tu lo necesitas,
                 E
no te preocupes

             A                                E
Que estás conmigo mi amor, muñequita de mis sueños ven a mi,
     F#m                       D
Y con ese cariñito que yo quiero sea pa Mi 
           A                  E
bellos momentos, cosas mas bonitas,
         F#m                D     A 
búscale sentido, tu lo necesitas,
                 E
no te preocupes que estas conmigo.


A  E   F#m  D   [ x 3 veces ]


         D                  F#m
no es su lugar, no es donde esta,
        A                       E
y si da miedo preguntar no te preocupes,


CORO:
             A                                E
Que estás conmigo mi amor, muñequita de mis sueños ven a mi,
     F#m                       D
y quédate aquí mismito, pon tu alma a digerir,
           A                  E
bellos momentos, cosas mas bonitas,
         F#m                D     A 
búscale sentido, tu lo necesitas,
               E
no te preocupes.

             A                                E
Que estás conmigo mi amor, muñequita de mis sueños ven a mi,
     F#m                       D
Y con ese cariñito que yo quiero sea pa Mi 
           A                  E
bellos momentos, cosas mas bonitas,
         F#m                D     A 
búscale sentido, tu lo necesitas,
                 E
no te preocupes que estas conmigo.
 
Calificar esta versión:
Aviso: Este fichero es trabajo propio de su transcriptor y representa su interpretación personal de la canción. El material contenido en esta página es para exclusivo uso privado, por lo que se prohibe su reproducción o retransmisión, así como su uso para fines comerciales.