24, Jem (tablatura)

Autor: sonac32 | 38210 visualizaciones

Intro

6-|-0-----------------|-0-----------------|
5-|---2---------------|---2-----2-2-2/5-5-|
4-|-----4-2-2/5-5-5-5-|-----4-2-----------|
3-|-------------------|-------------------|
2-|-------------------|-------------------|
1-|-------------------|-------------------|

6-|-------------------|-------------------|
5-|-0-----------------|-0-------2---------|
4-|---2---------------|---2-------4-------|
3-|-----4-2-2/5-5-5-5-|-----4-2-----4-----|
2-|-------------------|---------------4---|
1-|-------------------|-------------------|

esta es la parte del violin

6-|-----------------------|
5-|-----------------------|
4-|-----------------------|
3-|-----------------------|
2-|-----------------------|
1-|-0-2-0-3-0-5-0-7-5-3-2-|

Comentarios del colaborador: mi primera tablatura sonac32º

Calificar esta versión:
Aviso: Este fichero es trabajo propio de su transcriptor y representa su interpretación personal de la canción. El material contenido en esta página es para exclusivo uso privado, por lo que se prohibe su reproducción o retransmisión, así como su uso para fines comerciales.