MESTIZAMBA, JAURIA (tablatura)

Autor: Anónimo | 50 visualizaciones

E  ---------------------------------------------- 
A  --5--7s8-------------------------------5-4-5--
D  ---------5-7---------------------5-3-2-------- 
G  -------------4-6-7-----7--5-4-3-2-------------  
B  -------------------6-5------------------------  
e  ----------------------------------------------

E  ------------------------------------------------- 
A  --5--7s8-----------------------------------------
D  ---------5-7------------------------------------- 
G  -------------4-6-7-----7-------------------7-6-7-
B  -------------------6-5----6s8-6-8s10--8-6-5------  
e  -------------------------------------------------

dm y 

G-10
B-10
e-10


Dm
De tanto andar entre perros
      C               F
me paso el día ladrando.
 A7                   Dm
¡Largue el bozal compañero!
            F      A7   Dm
¿no ve que vengo cantando?

Yo no soy perro cautivo
que ve la vida de adentro.
Cuando me gusta una hembra
detrás le salgo corriendo.
C                         F
Zamba del perro mestizo,
C                         F
que anda solito y vagando.
A7                      Dm
La libertad tiene un precio
            F     A7   Dm
que a veces pago penando.

Que no me falte el refugio,
que abunde el sol y la sombra.
Que el pueblo viva contento
que así me tiran mas sobras

Y cuando llegue la muerte
que siempre llega algún día,
quiero reencarnar en perro
y volver a mi jauría.

Zamba del perro mestizo,
que anda solito y vagando.
La libertad tiene un precio
que a veces pago penando.
A7                       Dm
La libertad tiene un precio
                 A       Dm
que a veces pago penando.



XDiegoo
Aviso: Este fichero es trabajo propio de su transcriptor y representa su interpretación personal de la canción. El material contenido en esta página es para exclusivo uso privado, por lo que se prohibe su reproducción o retransmisión, así como su uso para fines comerciales.