Corazon, Jarabe De Palo (acordes)

Autor: Anónimo | 43338 visualizaciones

cc9


 Intro

{A}
E  :-------------3----------3-----------------------3------------3----------------
B :-----------3----3----3-----3------------------3-----3------3-----3-------------
G :--------0---------0------------0-----------0------------0------------0---------
D :-------------------------------------------------------------------------------
A :--------------------------------------0----------------------------------------
E :----3-------------------------------------------------------------------------- 
varias veces

{B}
E  :-------------0-----------0-------------------------0------------0-------------
B :-----------1-----1-----1-----1-------------------1-----1------1-----1----------
G :-------0------------0-----------0-------------0------------0------------0------
D :-------------------------------------------------------------------------------
A :-----------------------------------------0-------------------------------------
E :--1---------------------------------------------------------------------------- 
Una vez y repite A 


Esta es la historia de un corazón
que andaba por el mundo 
buscando una razón, 
una razón pa vivir, 
una razón pa morir,
una razón pa seguir latiendo 
al ritmo que marcaba el viento,
una razón pa vivir la vida 
de día y de noche de noche y de día
y latir sin parar buscando una verdad,
al ritmo de un hua huanco.

C9         
Corazón de cristal 
corazón de madera
Corazón de verdad 
corazón que bombea
              C              
Corazón de la danza
          C9
corazón de la guerra
corazón de la paz 
corazón de mi tierra
corazón que no ríe 

              C
corazón que no siente
               C9                      
corazón que no late 
corazón que se muere
         C
corazón transparente 
                C9
corazón que no miente
               C                              
corazón que se mueve 
               C9
corazón de mi gente

Cuatro eran los beattles 
30 pétalos la margarita
diez son los mandamientos 
C                C9
y solo uno da vida
cuarenta son los ladrones
C                       C9 
cero las reglas para el amor
cuatro son los colores 
miles las flores 
C               C9
y solo uno por el.

Y así el resto de la canción. 

Fuente original: LaCuerda
Colaborador original: Roman Miss [romanu333@hotmail.com]





Calificar esta versión:
Aviso: Este fichero es trabajo propio de su transcriptor y representa su interpretación personal de la canción. El material contenido en esta página es para exclusivo uso privado, por lo que se prohibe su reproducción o retransmisión, así como su uso para fines comerciales.