Como Peces En El Agua, Jarabe De Palo (tablatura)

Autor: Anónimo | 20267 visualizaciones



Mi versión de Como peces en el agua,
del Album Bonito.

Utilizar el Mi de la introducción.
Enviar comentarios a joseche@gmail.com


Introducción


     C#m        E          C#m        E          C#m        E
|------------------------------------------------------------------|
|-----5------------9--------5-------------9-------5------------9---|
|-------6----------9----------6-----------9---------6----------9---|
|---------6-----9-----9---------6------9----9---------6-----9------|
|--4-------/-7-----------4-------/--7----------4-------/-7---------|
|------------------------------------------------------------------|


    B         A
|-------------------|
|----4----------2---|
|------4--------2---|
|--------4----2---2-|
|--2-------0--------|
|-------------------|



La segunda parte tienen una pequeña variación, algo así:

    B    A
|-------------|
|--7--5-5----|
|---8-6-6----|
|----97-7----|
|-------------|
|-------------|


           C#m                  E
Iba tan deprisa que no te vi pasar
           C#m           E
Tan deprisa que no veia nada,
           C#m                  E
Tan deprisa que me perdí el paisaje
              B           A
Y la belleza que me rodeaba.

           C#m                  E
Iba tan deprisa que no me di cuenta,
           C#m                  E
Tan deprisa que la vida se escapaba,
           C#m                  E
Tan deprisa que el presente era pasado
              B       A
A cada paso que daba.


Interludio:


2x

|----------------------------------------------------|
|---------5---------5----------5----4---4------------|
|-----6-6------6--6--------6--6------4---4-----------|
|(7)/6-6--(7)/6--6----(7)/6--6--------4---4-/-9--4--|
|--------------------------------------2---2---------|
|----------------------------------------------------|


           C#m                  E
Quería parar a disfrutar de los olores
           C#m                  E
Del suave vaivén del juego de los amantes,
           C#m                  E
Quería parar y recrearme en la locura
              B       A
Cuando dos cuerpos se juntan.

           C#m                  E
Quería parar a disfrutar de los momentos
           C#m                  E
Del suave vaivén de los peces en el agua,
           C#m                  E
Quería parar pero iba tan deprisa
              B       A
Que se me escapó la vida.



   C#m                            E
Iba tan deprisa, Que no cai en la cuenta
    B                       A
Que corria y corria, Y que no tenia prisa.
   C#m                            E
Iba tan deprisa Que no cai en la cuenta
    B                       A
Que corria y corria Sin saber a donde iba.


|----------------------------------------------------|
|---------5---------5----------5----4---4------------|
|-----6-6------6--6--------6--6------4---4-----------|
|(7)/6-6--(7)/6--6----(7)/6--6--------4---4-/-9--4--|
|--------------------------------------2---2---------|
|----------------------------------------------------|


|----------------------------------------------------|
|---------5---------5----------5----4----2-2---------|
|-----6-6------6--6--------6--6------4-----2---------|
|(7)/6-6--(7)/6--6----(7)/6--6--------4-----2--------|
|--------------------------------------2-----0-------|
|----------------------------------------------------|




   C#m                            E
Iba tan deprisa, Que no cai en la cuenta
    B                       A
Que corria y corria, Y que no tenia prisa.
   C#m                            E
Iba tan deprisa Que no cai en la cuenta
    B                       A
Que corria y corria Sin saber a donde iba.





Calificar esta versión:
Aviso: Este fichero es trabajo propio de su transcriptor y representa su interpretación personal de la canción. El material contenido en esta página es para exclusivo uso privado, por lo que se prohibe su reproducción o retransmisión, así como su uso para fines comerciales.