La Autopista De La Libertad, Jaf (tablatura)

Autor: Anónimo | 42006 visualizaciones

ACORDES
   A5     C5    G5  D5   D7    E5   E7
E|-----|-----|----|----|----|----|----|
B|-----|-----|----|----|--5-|----|--7-|
G|--2--|--5--|----|--7-|--5-|--9-|--7-|
D|--2--|--5--|--5-|--7-|--4-|--9-|--6-|
A|--0--|--3--|--5-|--5-|--5-|--7-|--7-|
E|-----|-----|--3-|----|----|----|----|

Intro 2 Veces en la segunda vez cambiar D5 por D7
y mientras canta mantiene A ( Quinta Cuerda) PM

E ------------------------------------|-----------------------------------
B ------------------------------------|-----------------------------------
G -2----------------------5-----------|---------------------7-(9)--7--5---
D -2--------5 / 7--5--7-------7--5--7-| -----5 -/--7--5--7---------------7
A -0-----0----------------------------|-0---------------------------------
E ------------------------------------|-----------------------------------

E|---------------------------------------------------------
B|---------------------------------------------------------
G|----2----------------------5-----------------5-------7---
D| ---2--------5 / 7--5--7-------7--5--7-------5--5----7---
A|----0-----0----------------------------------3--5----5---
E| -----------------------------------------------3--------

A PM
DESDE LA AUTPOSTA
TODO PUEDO VER
ORGULLOS PISOTEADOS
POR UN MISMO PIE
     D7
VOLUNTADES            A5
QUE NO QUIEREN CLAUDICAR
E5
EN MEDIO DE LA GENTE
D5
ME VEO YO TAMBIEN
C5
TRATANDO COMO TODOS
D5
DE NO PERDER EL TREN

INTRO
DE NO PERDER EL TREN
A PM
VOY POR LA AUTOPISTA
HACIA LA CIUDAD
AUTOS, COLECTIVOS Y CAMIONES
SIN PARAR
       D7
TODOS VAMOS       A5
VAMOS AL MISMO LUGAR
E5
FABRICA OFICINA
D5
LA OBRA O MENDIGAR
C5
YUGOS QUE PRESIONAN
D5
A TODOS POR IGUAL

INTRO QUE CAMBIA LOS ACORDES DEL FINAL POR E7 4 VECES A5
PRESIONAN A TODOS POR IGUAL

SOLO

A5 PM
HOY EN LA AUTOPISTA DE LA LIBERTAD
ME SALDRAN TRES ALAS
Y VOY A DESPEGAR
    D7
ABANDONARE
ESTA REALIDAD VIRTUAL
LOS 2 PRIMEROS COMPACES DE LA INTRO Y PEGAR E5
Y ME IRE VOLANDO
D5
HASTA ALGUN LUGAR
C5
LEJOS DE ESTAS NUBES
D5
VERE EL SOL BRILLAR
C5
SOLO EN LA AUTOPISTA
D5         E5          A5
DE LA LIBERTAD

CUALQUIER DUDA Y/O CORRECCION LEOSPANU@DATAFULL.COM
Calificar esta versión:
Aviso: Este fichero es trabajo propio de su transcriptor y representa su interpretación personal de la canción. El material contenido en esta página es para exclusivo uso privado, por lo que se prohibe su reproducción o retransmisión, así como su uso para fines comerciales.