Good People, Jack Johnson (acordes)

Autor: julimor | 30157 visualizaciones



HOLA!  AKI LES DEJO UNA SUPER CANCION 

VOTEN !


Acordes:
     E  A  D  G  B  e
B  : 7  9  9  8  7  7
E  : x  7  9  9  9  7
C#m: x  4  6  6  5  4
F# : 2  4  4  3  2  2
C#*: 9 11 11 10  9  9
C* : 8 10 10  9  8  8
F#*: x  9 11 11 11  9
F* : x  8 10 10 10  8

Tom: B              
Intro
e|---------------------------------------------------|
B|----------------------------------9s10--9--7-------|
G|--------9b11-9p7-----7-----------------------9-----|
D|-------------------9---9------------------------9--|
A|---------------------------------------------------|
E|--7--7---------------------9--9--------------------|

e|-------------------------------------------------------|
B|-------------------------------------------------------|
G|--------9b11-9p7-----7-----------11--11--9--11p9-------|
D|-------------------9---9--------------------------11/--|
A|-------------------------------------------------------|
E|--7--7---------------------9--9------------------------|


B        E             C#m        F#
  You win it's your show now, So what's it going to be? 
B             E            C#m                     F#
  cause people will tune in, How many train wrecks do we need to see? 
B       E          C#m      F#
  Before we lose touch, And we thought this was low 
B           E              C#m  
  Well it's bad, getting worse.... 

F#			      B       E       C#m     
Where'd all the good people go? 
            F#				  B              E          C#m
I've been changing channels and I don't see them on the tv shows 
F#			      B       E       C#m
Where'd all the good people go?
            F#                B           E       C#m       F# 
We've got heaps and heaps of what we sow 

         B			E
They got this and that with a rattle a tat 
    C#m               F#
Testing, one, two, man whatcha gonna do 
    B		      E
Bad news misused, got too much to lose 
  C#m			   F#
  Give me some truth now, who's side are we on 
    B           E		C#m		     F#
Whatever you say, Turn on the boob tube, I'm in the mood to obey 
    B           E            C#m
So lead me astray, And by the way now... 

F#			      B       E       C#m     
Where'd all the good people go? 
            F#				  B              E          C#m
I've been changing channels and I don't see them on the tv shows 
F#			      B       E       C#m
Where'd all the good people go?
            F#                B           E       C#m       F# 
We've got heaps and heaps of what we sow 

riff 
e|----------------------------------7-----------------|
B|----------------------------------7----10--7--------|
G|--------9b10-9p7--7-------------------------9-------|
D|--------------------9—9-----------------------------|
A|----------------------------------------------------|
E|--7--7--------------------9—9-----------------------|
e|------------------------------------------------------------|
B|------------------------------------------------------------|
G|--------9-9b10-r9p7-----7----------11-10—11-10—11-10—--9----|
D|-------------------9----------------------------------------|
A|------------------------------------------------------------|
E|--7--7-------------------9--9-------------------------------|

E                               B                      
    Sitting around feeling far away,   
C*  C#*  				  F#*            F*
        So far away but I can feel the debris, can you feel it?
E		              B
    You interrupt me from a friendly conversation 
C*  C#*				     	       F#*          
        To tell me how great it's all going to be 
F*   E			      B
        You     might     no-tice some hesitation 
C*  C#*					             F#*            
        It's important to you, it's not important to me 
F*   E		             B
        But way down by the edge of yo--ur reason 
C*  C#*                              	   E
        It's beginning to show,       and all I really want to know is... 

F#*			      B       E       C#m     
Where'd all the good people go? 
            F#				  B              E          C#m
I've been changing channels and I don't see them on the tv shows 
F#			      B       E       C#m
Where'd all the good people go?
            F#                B           E       C#m       F# 
We've got heaps and heaps of what we sow                   (Where'd all the good people go?)

         B			E
They got this and that with a rattle a tat 
    C#m               F#
Testing, one, two, man whatcha gonna do 
    B		   E
Bad news misused, give me some truth
        C#m			   F#                    
You got too much to lose,  Whose side are we on
                           Where'd all the good people go?       
   B                   E
today anyway, Okay whatever you say
C#m			       F#   
Wrong and resolute but in the mood to obey
  B           E            C#m          F#
Station to station, desensitizing the nation
Where'd all the good people go?       
B
Going, going, gone





Calificar esta versión:
Aviso: Este fichero es trabajo propio de su transcriptor y representa su interpretación personal de la canción. El material contenido en esta página es para exclusivo uso privado, por lo que se prohibe su reproducción o retransmisión, así como su uso para fines comerciales.