Shuffle It All, Izzy Stradlin (tablatura)

Autor: diamond | 26792 visualizaciones



bueno esta parte se hace con el bajo no se escucha mucho asi qe es un poco dificil pero me lo saque en guitarra:

(esta parte se hace dos veces)
1|-------------------------------------------------------------|
2|-------------------------------------------------------------|
3|-------------------------------------------------------------|
4|-------------------------------------------------------------|
5|-------7/8--9--7---------------------------6-7/8--6-5/6-4----|
6|-7/9--------------8--7/9--7--5-----5--6/8-----------------5-3|

luego va:
(se puede hacer el acompañamiento qe es A-D)
1|--------7/9--------------------------------------------|
2|-8h9-7--7/9--8h9-----------------------2--------2------|
3|------------------6/7-6-5--6/7-6-5---------2--------2--|
4|-------------------------------------3---2-1--3---2-1--|
5|-------------------------------------------------------|
6|-------------------------------------------------------|

(SI les gusta mas solo tocan 
VERSE1  LA	    RE
	Boredom  Saturation
	Its a never ending   clue
	LA          MI
	Isn't just to fill up time when
        RE          LA
	There's nothing  else   to do

VERSE2 -LA              RE
	She drove on out of  New York
	She'd had enough,    insane
	LA              MI
	Drivin just through  Texas, two days
	RE              LA
	She ended  up    in  LA.

CHORUS -RE	    LA
	Shuffle It All
	Shuffle It All    Yeh
	Shuffle It All
	MI	     RE
	Pack up your bags again

	RE LA
	RE LA
	RE LA
	MI RE
	
VERSE3 -LA               RE
	A pile of records spread out
	The covers still look good
	LA             MI
	Picture here of Peter Tosh, He's
	RE                LA
	Struttin' down and-a-smokin wood

VERSE4 -LA                   RE
	My dog dreaming he's runnin', I know
	I see him twitchin' a paw
	LA             RE
	Woman playing  DR. Mario
	RE           LA
	On the TV   all night long
	RE		LA
	Just another cigarette
	Starin at the moon yeh
	then your headin off to bed
	MI	    RE
	Sleepin' without you

CHORUS - RE LA		RE
	    Shuffle It All
	    LA		RE
	    Shuffle It All
	    LA
    	    yeh
	    MI		RE
	    Pack up your bags again
	    LA

BRIDGE -F#m		LA
	Its a long and windin' road, I
	RE	        LA
	Sure enjoy the view, yeh
	F#m		LA
	If you want to see it
		   MI 
	You're so welcome, come on down
	FHm	     LA
	Lookin for a tune to play
	RE           LA
	Gonna see it again
	F#m	     LA
	When the day is over
		MI		   RE
	Try to write you bout the road
	
	RE LA
	RE LA
	RE LA
	RE LA
	RE		 LA
	Feel the motors windin on
	There ain't no news
	If you see those old friends out there
	MI		RE
	Tell em that I send my love
	RE		   LA
	Wake up, time to leave again
	Try and find my shoes
	Put the luggage inthe van
	MI	      RE
	Roll up your bag for two, well

CHORUS - RE	    LA
	 Shuffle It All
	 Shuffle It All
	 Shuffle It All
	 MI		RE
 	 Pack up your things again

	 D	     A
	 Shuffle It All (Keep it movin' along)
	 Shuffle It All Yeh (Keep it movin' along)
	 Shuffle It All (Keep it movin' along)
	 E	        D
	 Pack up your life again

	RE  LA
	RE  LA
	   Yeh
	RE  LA
	MI     RE
	Keep on shuffling

	RE-RE7-SI-LA





Comentarios del colaborador: bien espero les quede

Calificar esta versión:
Aviso: Este fichero es trabajo propio de su transcriptor y representa su interpretación personal de la canción. El material contenido en esta página es para exclusivo uso privado, por lo que se prohibe su reproducción o retransmisión, así como su uso para fines comerciales.