Ya Tu No Estás De Moda, Isa Mebarak (acordes)

Autor: Anónimo | 23147 visualizaciones

ambmcdd-fsosemg


intro: G - D/F# - C - D.

E---------------   ---------------  ---------------  ---------------
B---------------   ---------------  ---------------  ---------------
G---------------   ---------------  ---------------  ---------------
D------------0--   ------------0--  ---------------  --------0-2-0--
A--------0-2----   --------0-2----  --------0-2-3--  --0-2-3--------
E--0-2-3--------   --0-2-3--------  --0-2-3--------  ---------------



G
 Hubiera preferido saber la verdad
Bm
 No era necesario ponerte el disfraz
Am
 Podría darte un oscar al mejor actor
D              Em    D/F#
 Gracias por jugar conmigo.
G
 No voy alzar la voz ni voy hacer un show
Bm
 Por que no te mereces que pierda el control
Am
 No pienses que no duele no soy un robot
D                C        D
 Pero no voy a darte el gusto...


    Em
de verme  Llorar no no
     C         D
de verme gritar...


    G              Bm           C
Ni pienses que voy a rezar por ti
                    D
Rogando por que vuelvas
    G            Bm         C
La vida ya se encargará de ti
                 D
Te pasará la cuenta
       G            Bm           C
Y por hoy sólo te quiero agradecer
                    D
Que me he quedado sola
   G                    Bm         Am
Yo sé que hay que algo bueno para mí

Ya tú no estás de moda...


G - D/F# - C - D.

E---------------   ---------------  ---------------  ---------------
B---------------   ---------------  ---------------  ---------------
G---------------   ---------------  ---------------  ---------------
D------------0--   ------------0--  ---------------  --------0-2-0--
A--------0-2----   --------0-2----  --------0-2-3--  --0-2-3--------
E--0-2-3--------   --0-2-3--------  --0-2-3--------  ---------------



G
 Ahorra tu excusas no hacen falta ya
Bm
 Si te vieron mis ojos que vas a explicar
Am
 Ya no quiero escuchar una mentira más
D             Em       D/F#
 No soy tonta ni estoy loca.
G
 Dicen que el tiempo es sabio y vamos a ver
Bm
 Cuanto vas a durar con esa mujer
Am
 Mientras que yo no tengo nada que perder
D             C        D
 Ahora que ya se quien eres...


    Em
Me ocupo de ser yo misma
      C        D
Y empiezo a vivir...


    G              Bm           C
Ni pienses que voy a rezar por ti
                    D
Rogando por que vuelvas
    G            Bm         C
La vida ya se encargará de ti
                 D
Te pasará la cuenta
       G            Bm           C
Y por hoy sólo te quiero agradecer
                    D
Que me he quedado sola
   G                    Bm         C
Yo sé que hay que algo bueno para mí
                    D
Ya tú no estás de moda...

    G              Bm           C
Ni pienses que voy a rezar por ti
                    D
Rogando por que vuelvas
    G            Bm         C
La vida ya se encargará de ti
                 D
Te pasará la cuenta
       G            Bm           C
Y por hoy sólo te quiero agradecer
                    D
Que me he quedado sola
   G                    Bm         C
Yo sé que hay que algo bueno para mí
                    D
Ya tú no estás de moda...

G         Bm        C
aay ay ay ay ay ay ay
                     D
ya tu no estas de moda. [varias veces]

G         Bm        Am
aay ay ay ay ay ay ay
                        G
ya tu no estas de moda... [la ultima repeticion]





Calificar esta versión:
Aviso: Este fichero es trabajo propio de su transcriptor y representa su interpretación personal de la canción. El material contenido en esta página es para exclusivo uso privado, por lo que se prohibe su reproducción o retransmisión, así como su uso para fines comerciales.