Weasel Rock You, Iron Weasel (acordes)

Autor: titoh97 | 43691 visualizaciones

abdfg


[intro]

[parte 1]
E|-12r--14r------17---------------17-------------17--------------17-----------------------------|
B|-----------------------16--------------16--------------16----------------16-------------------|
G|------------------15--------15-----15------15------15------15-------15-------15---------------|
D|----------------------------------------------------------------------------------------------|
A|----------------------------------------------------------------------------------------------|
E|----------------------------------------------------------------------------------------------|

[parte 2]
E|---------------------------------------------------|
B|-12\3-2b-------------------------------------------|
G|---------------------------------------------------|
D|---------------------------------------------------|
A|---------------------------------------------------|
E|---------------------------------------------------|

D
Rockin'out and hangin'out that what i'm all about
                                                 G    F
I'm in the bandand we demand you hearthe weasel shout!
A
Can't stop rockin'withmy boys can't stop making'so much noise!

[coro]
D
Weasel rock you!On stagewe'rewild and crazy!
G                D
Weasel shock you!Back home he're wild and lazy!
D
Weasel rock you!With a heavy metal smack.
G
Weasel shock you!The weasel's comin back!
B
How much your head
D
Weasel rock you!





Calificar esta versión:
Aviso: Este fichero es trabajo propio de su transcriptor y representa su interpretación personal de la canción. El material contenido en esta página es para exclusivo uso privado, por lo que se prohibe su reproducción o retransmisión, así como su uso para fines comerciales.