Flightless Bird, Iron And Wine (tablatura)

Autor: kvnlpz | 32914 visualizaciones



Capo 3
            C                        
e|------------------------|
B|--1-1---1-1---1-1---1-1-|
G|--0-0---0-0---0-0---0-0-|
D|------2-----------------|
A|3-----------3-----2-----|
E|------------------------|

           Am
e|------------------------|
B|--1-1---1-1---1-1---1-1-|
G|--2-2---2-2---2-2---2-2-|
D|------2-----------------|
A|0-----------0-----------|
E|------------------0-----|

           F               
e|------------------------|
B|--1-1---1-1---1-1---1-1-|
G|--2-2---2-2---2-2---2-2-|
D|------------------------|
A|------3-----------3-----|
E|1-----------1-----------|

            G
e|------------------------|
B|--0-0---0-0---0-0-------|
G|--0-0---0-0---0-0-------|
D|------------------------|
A|-----0h2------------0-2-|
E|3-----------3-----3-----|

                                Letra

           C
I was a quick wet boy
          Am
Diving too deep for coins
           F
All of your straight blind eyes
           G
Wide on my plastic toys
            C
And when the cops closed the fair
           Am
I cut my long baby hair
            F
Stole me a dog-eared map
              G
And called for you everywhere

       C
Have I found you?
     Am             F        G
Flightless bird, jealous, weeping
     C
Or lost you?
     Am
American mouth
  F         G
Big bill looming

          C
Now I'm a fat house cat
           Am
Cursing my sore blunt tongue
             F
Watching the warm poison rats
                G
Curl through the wide/white fence cracks
           C
Kissing on magazine photos
     Am                           F
Those fishing lures thrown in the cold and clean
             G
Blood of Christ mountain stream

        C
Have I found you?
  Am              F        G
Flightless bird, grounded, bleeding
   C
Or lost you?
   Am
American mouth
   F           G    
Big bill, stuck going down





Calificar esta versión:
Aviso: Este fichero es trabajo propio de su transcriptor y representa su interpretación personal de la canción. El material contenido en esta página es para exclusivo uso privado, por lo que se prohibe su reproducción o retransmisión, así como su uso para fines comerciales.