Orbital, Inyectores (tablatura)

Autor: valuis | 40805 visualizaciones



INTRO Y VERSOS:
  B5 D5 A5 G5
|------------|1)
|------------|2)
|-4--7-------|3)
|-4--7--7--5-|4)
|-2--5--7--5-|5)
|-------5--3-|6)

CORO:
D5 A5 B5 G5
|------------|1)
|------------|2)
|-7-----4----|3)
|-7--7--4--5-|4)
|-5--7--2--5-|5)
|----5-----3-|6)

SOLO:

3)-6-7-7-------6-7-6h4p4-4/6-4-|
4)-------7/9-7-----------------|



2)-7-5h7-5h7-5h7-7777-7h10-7h10-7h10-1010------|




2)7-5h7-5h7-7777-7-5-3-5-5h7-5h7-5h7-7777-7h10-7h10-7h10



4)-2-0-------0-2---|
5)-----4-5-4-----2-|
6)-----------------|


grax por verlo mi correo es [email protected] ucalquier duda consulta





Comentarios del colaborador: xbveere esa cancion de inyectores

Calificar esta versión:
Aviso: Este fichero es trabajo propio de su transcriptor y representa su interpretación personal de la canción. El material contenido en esta página es para exclusivo uso privado, por lo que se prohibe su reproducción o retransmisión, así como su uso para fines comerciales.