Estado De Coma, Invisible (tablatura)

Autor: Anónimo | 25766 visualizaciones



Un simple del 74..
Acordes de 5ta con la fundamental en la 5ta cuerda
y algo de distorsión en la mayor parte de la canción.



Riff.1

e------------------------------------------/
b------------------------------------------/
g----------5-------------5-----------------/
d------5-----7-------5-----7------7--7-----/
a-5s7-7--7------5s7-7--7-----5s7--7--7-----/
E---------------------------------5--5-----/

Intro: A5 D5 E5


A5   C5/D5       D5/E5      Riff.1
Cuatro cables, se tocaron
A5   C5/D5       D5/E5      Riff.1
las paredes desprendidas
A5   C5/D5       D5/E5      Riff.1
un avión salió a la calle.
A5   C5/D5       D5/E5       E5 F5 F#5
La mujer quemó un corpiño

F#5                  Ab5        (traste 11)
estado de coma
F#5                  Ab5        (traste 11)
estado de coma
Ab5
estado de coma
Ab5
estado de coma

E5

e---------------------------------------------------/
b------9h10--9--------------------------------------/
g--9---9-----9-9--------9-8-7----11s10-10-----------/
d--9-----------9---7s9--9-8-7----11s10-10-----------/
a--7---------------7s9--7-6-5----9-s8--8-s7(Riff.1)-/
E---------------------------------------------------/

Riff.1
Punteo con base de A/D/E

A5   C5/D5       D5/E5      Riff.1
mis amigosya se fueron
A5   C5/D5       D5/E5      Riff.1
la mamá se fue a la guerra
A5   C5/D5       D5/E5      Riff.1
mis vecinosse pelean
A5   C5/D5       D5/E5      E5 F5 F#5
una voz cambió una fiesta.. no.

F#5                  Ab5        (traste 11)
estado de coma
F#5                  Ab5        (traste 11)
estado de coma
Ab5
estado de coma
Ab5
no es lo que quiero no, no, no..!… hahahahah


E5

e---------------------------------/
b------9h10--9--------------------/
g--9---9-----9-9--------9-8-7-----/
d--9-----------9---7s9--9-8-7-----/
a--7---------------7s9--7-6-5-----/
E---------------------------------/

Termina en E5.


S:Slide
H:Hamer on


ante cualquier duda a [email protected]





Calificar esta versión:
Aviso: Este fichero es trabajo propio de su transcriptor y representa su interpretación personal de la canción. El material contenido en esta página es para exclusivo uso privado, por lo que se prohibe su reproducción o retransmisión, así como su uso para fines comerciales.