Encadenado Al ánima (intro), Invisible (tablatura)

Autor: fedisible | 28423 visualizaciones



Invisible
Encadenado al ánima


Bueno… es de mis temas preferidos y hasta ahora no encontre NADA de esto en Internet, aca esta parte del principio.. la verdad espero que se copen y manden la cancion entera, si es que alguien puede..


Intro:
Juego de bajo y otros detalles


C#m / A / F / E


(00:20)
          C#m      A        F    E 

 e-.--------4------4--------1----0-------/
 b-.-------5-------4--------1----0-------/
 g-.------6--------6--------2----1-------/     X 2
 d-.-----6---------6--------3----2-------/
 a-.--4------------7--------3----2----3--/
E-----------------4---------1----0-------/


(00:54)

g-.--8h9p8~~---


(01:05)
                                         (Empieza la bata)
e-.---------------------------------------------------/
b-.--------------------------------------------2~~~~--/
g-.-------------------------6-------------------------/
d-.----5-5---5----------------4------4-´-4h5----------/
a-.--------6----4-3--2—(5)-------7--------------------/
E--------------------------------------------5--------/

e-.---------------------------------------------------/
b-.--------------------------------------------2~~~~--/
g-.-------------------------6-------------------------/
d-.----5-5---5----------------4------4-´-4h5----------/
a-.--------6----4-3--2—(5)-------7--------------------/
E--------------------------------------------5--------/

                                               (Dmaj7)

e-.---------------------------------------------2~~~~-/
b-.---------------------------------------------2~~~~-/
g-.-------------------------6-------------------2~~~~-/
d-.----5-5---5----------------4------4-´-4h5----0-----/
a-.--------6----4-3--2—(5)-------7--------------------/
E--------------------------------------------5--------/

e-.---------------------------------------------------/
b-.--------------------------------------------2~~~~--/
g-.-------------------------6-------------------------/
d-.----5-5---5----------------4------4-´-4h5----------/
a-.--------6----4-3--2—(5)-------7--------------------/
E--------------------------------------------5--------/


(01:34)
g-.—7-8-.-5-4-.-4-5-.-3-2-/ X2   E


E... (serie de acordes)...
Termina en Bm  (en transportable, traste VII)


(01:56)

Bm(VII)      G#5 //            A(V)          G(III)
Sii..      el viejo portal del cieee-eelo

Bm(VII)      G#5 //            A(V)          G(III)
Sii..      el viejo portal del cieee-eelo

Bm(VII)      G#5 //            A(V)          G(III)
Sii..      el viejo portal del cieee-eelo

Bm(VII)      G#5 //            A(V)          G(III)
Sii..      el viejo portal del cieee-eelo



(02:29)

Bm!
Puedo enfriar los cuerpos de hoy y ayer..







Comentarios del colaborador: Espero que les sirva de algo.. cualquier duda a [email protected]

Calificar esta versión:
Aviso: Este fichero es trabajo propio de su transcriptor y representa su interpretación personal de la canción. El material contenido en esta página es para exclusivo uso privado, por lo que se prohibe su reproducción o retransmisión, así como su uso para fines comerciales.