No Me Quites La Frosdrolauga, Inventores Cuadrados (tablatura)

Autor: El Payaso Carambola | 33583 visualizaciones

(tocar a ritmo de rock and roll tipo "Mi Perro Dinamita" de Los Redondos )



Riff:

e|---------------------------
B|-----------------------
G|-------------------------
D|---------------------------
A|---------------------------
E|0-7-9-7-0-7-9-0-7-9-7-----------------


e|---------------------------
B|-----------------------
G|-------------------------
D|---------------------------
A|0-7-9-7-0-7-9-0-7-9-7-----------------
E|---------------------------
     
E          Bm
Vos nenito sos muy chiquitito,
E                  Bm
papi sabe cómo bailar...
A                    E               A                      E
Y sé que te vas a desilucionar, pero sabés que un día la podré 
            Bm                         E
alcanzar, y tu librito de leyes se romperá...


G               E
No me quites la frosdrolauga...
G               E
No me quites la frosdrolauga...
G               E
No me quites la frosdrolauga...
C#m  
Ey!



No me la saques, no, no me la saques,

no puedo hablar,

dejame tranquilo, andá a tu mundillo

de zombies que no saben carcajear...



No me quites la frosdrolauga...

No me quites la frosdrolauga...

No me quites la frosdrolauga...

Ey!



Un aplauso para tu moral,

muchas palabras pero no sabés nadar,

en esta montaña, en este valle vas a acabar mal,

hacés la voz pero ¿la vitina dónde está?



No me quites la frosdrolauga...

No me quites la frosdrolauga...

No me quites la frosdrolauga...

Ey!



Hoy estoy mejor que nunca,

el hormiguero escupí,

bailé sobre la tierra con tu forma,

y te digo...



No me quites la frosdrolauga...

No me quites la frosdrolauga...

No me quites la frosdrolauga...

Ey!


2:20 Solo de Juan Matongini:

e|10-12----------------------12----
B|------9-11-9---------12-14-----
G|-------------11-9-14----------
D|---------------------------
A|---------------------------
E|---------------------------

Repite Estribillo 2 veces

3:19 termina en E
Calificar esta versión:
Aviso: Este fichero es trabajo propio de su transcriptor y representa su interpretación personal de la canción. El material contenido en esta página es para exclusivo uso privado, por lo que se prohibe su reproducción o retransmisión, así como su uso para fines comerciales.