El Padrino, Intoxicados (tablatura)

Autor: Anónimo | 17477 visualizaciones



Esta versión es única…

Lo primero es una boludes
e/--------------------------------
B/--14-13-14-15-14-14-------------
G/--------------------(14)--------


e/--------------------------------
B/--14-13-14-15-14-14-------------
G/--------------------(13)--------


e/----------(12)--------------------------------------
B/-14-13-14-----14-13-14-(14)-13-(13)-9-(9)-13-(13)-9-
G/----------------------------------------------------

Ak empieza
e/----9-12-11-9-12-9-11-9---------
B/-9----------------------10-12-9-
G/--------------------------------


e/----9-12-11-9-12-9-11-9---------
B/-9----------------------9-8-7---
G/--------------------------------


e/------9-11b--------8-9-------------------------------
B/-7-10---------7-10------------12-10-9-12-10-9-9------
G/----------------------------9------------------------
D/-------------------------11---------------------10-11


e/-9-9-8-7-9/11-7-5-4---4-4-3-2-4-7-4-2-2-6-3-4-
B/----------------------------------------------
G/----------------------------------------------

e/---10-13-12-10-13-10-12
b/-10---------------------11-13-10

e/---10-13-12-10-13-10-12------------9-11-------9-10
b/-10---------------------10-9-8-8-10-----8-10-

e/--------------------------8-9-
B/--------12-10-9-12-10-9-9-----
G/-----9------------------------
D/--11--------------------------

Derechos de autor reservados.





Calificar esta versión:
Aviso: Este fichero es trabajo propio de su transcriptor y representa su interpretación personal de la canción. El material contenido en esta página es para exclusivo uso privado, por lo que se prohibe su reproducción o retransmisión, así como su uso para fines comerciales.