Departamento Deshabitado, Intoxicados (tablatura)

Autor: Anónimo | 19679 visualizaciones



  Riff 1
e|---------------------------------
B|---------------------------------
G|---------------------------------
D|---------7-----5---7-----5-5-7-7-
A|0-0-0-0----0-0---0---0-0---------
E|---------------------------------


Al riff 1 tienen que agarrarle bien el ritmo..

Todos los LA que se tocan al aire son muteados


 Riff 2

e|----------------------------
B|-13-13-13-13----10-10-10-10-
G|-12-12-12-12----9--9--9--9--
D|-10-10-10-10----7--7--7--7--
A|----------------------------
E|----------------------------

Riff 1

Nena no tengo gas
No tengo luz
Nena no tengo gas
No tengo luz
Nena no tengo gas
No tengo luz
Nena no tengo gas
No tengo luz


Riff 2

me fui cuidaste mi casa
y cuando llegue mira lo que encontre
me fui cuidaste mi casa
y cuando llegue mira lo que encontre





Calificar esta versión:
Aviso: Este fichero es trabajo propio de su transcriptor y representa su interpretación personal de la canción. El material contenido en esta página es para exclusivo uso privado, por lo que se prohibe su reproducción o retransmisión, así como su uso para fines comerciales.