Danza Di Cala Luna, Inti Illimani (tablatura)

Autor: nightseeker | 41358 visualizaciones



Danza di cala luna – inti-illimani     ( composición Hector Robledo Rojas )

00:08 seg
 E|---------------------------------------------------------------------------------------------------------------------------------
A|--------------------------------------------------------------------------------------------------------------------------------
D|--4---------------------------4----------------------------4-------------------------------------------------------------------
G|----------6----6----6----6-----------6----6----6----6------------6----6-----6----6----------------------------------------
B|-------7-----6----6----6--------7-----6----6----6-------------7-----6----6----6-------------------------------------------
 e|----------------------------------------------------------------------------------------------4-4-6-7-6-4--------------------

00:08 seg
E|--------------------------------------------------------------------------------------------------------------------------4-----
A|---------------------------------------------------------------------------------------------------------------------------------
D|--4---------------------------4----------------------------------------------------4--4--4------.5----4-----------------------
G|----------6----6----6----6-----------6----6----6----6-----------------------------------------------------------------------
   B|-------7-----6----6----6--------7-----6----6----6-------------------------------7--7--7-------5----7---------------------
 e|------------------------------------------------------------------4-4-6-7-6---------------------------------------------6-----


00:08 seg
E|---------------------------------------------------------------------------------------------------------------------------------
A|--------------------------------------------------------------------------------------------------------------------------------
D|--4---------------------------4----------------------------4-------------------------------------------------------------------
G|----------6----6----6----6-----------6----6----6----6------------6----6-----6----6----------------------------------------
B|-------7-----6----6----6--------7-----6----6----6-------------7-----6----6----6-------------------------------------------
 e|----------------------------------------------------------------------------------------------4-4-6-7-6-4--------------------

00:08 seg
E|--------------------------------------------------------------------------------------------------------------------------4-----
A|---------------------------------------------------------------------------------------------------------------------------------
D|--4---------------------------4----------------------------------------------------4--4--4------.5----4-----------------------
G|----------6----6----6----6-----------6----6----6----6-----------------------------------------------------------------------
   B|-------7-----6----6----6--------7-----6----6----6-------------------------------7--7--7-------5----7---------------------
 e|------------------------------------------------------------------4-4-6-7-6---------------------------------------------6-----

00:08 seg
E|---------------------------------------------------------------------------------------------------------------------------------
A|---------------------------------------------------------------------------------------------------------------------------------
D|--4-----------------------4-------------------------4--------------------------------------------------------------------------
G|---------6------6---6------------6-----6----6------------6-------6----6-----------------------------------------------------
B|------7------------------------7------------------------7-----------------------------------------------------------------------
 e|--6----------4----4------6---------4-----4--------6-----------4-----4------4-4-6-7-6--------------------------------------


00:08 seg
E|----------------------------------------------------------------------------------------------------------------4-----------------
A|---------------------------------------------------------------------------------------------------------------------------------
D|--4-----------------------4-----------------------------------------4----4----4---------5---------4--------------------------
G|---------6------6---6------------6-----6----6---------------------------------------------------------------------------------
B|------7------------------------7------------------------------------7----7----7---------5---------7----------------------------
 e|--6----------4----4------6---------4-----4-------4-4-6-7-6------------------------------------------------6-----------------






00:08 seg
E|---------------------------------------------------------------------------------------------------------------------------------
A|---------------------------------------------------------------------------------------------------------------------------------
D|--4-----------------------4-------------------------4--------------------------------------------------------------------------
G|---------6------6---6------------6-----6----6------------6-------6----6-----------------------------------------------------
B|------7------------------------7------------------------7-----------------------------------------------------------------------
 e|--6----------4----4------6---------4-----4--------6-----------4-----4------4-4-6-7-6--------------------------------------


00:08 seg
E|-----------------------------------------------------------------------------------------------------------------5-----------------
A|----------------------------------------------------------------------------------------------------------------4-----------------
D|--4-----------------------4-----------------------------------------4----4----4---------5---------4--------- 4------------------
G|---------6------6---6------------6-----6----6-----------------------------------------------------------------------------------
B|------7------------------------7------------------------------------7----7----7---------5---------7------------------------------
 e|--6----------4----4------6---------4-----4-------4-4-6-7-6--------------------------------------------------------------------

>>>viene la sampolla y el bombo en esta parte son 00:20 seg.<< lo que viene despues es lo mismo que la segunda estrofa pero en 
ocacione rasgueado el principio
del punteo.-

00:08 seg
E|--4-----------------------4-------------------------4----------------------------------------------------------------------------
A|--4-----------------------4-------------------------4-----------------------------------------------------------------------------
D|--4-----------------------4-------------------------4--------------------------------------------------------------------------
G|--6------6------6---6----6-------6-----6----6----6--------6-------6----6-----------------------------------------------------
B|--7---7-------------------7----7-------------------7-----7-----------------------------------------------------------------------
 e|--6----------4----4------6---------4-----4--------6-----------4-----4------4-4-6-7-6--------------------------------------


00:08 seg
E|--4------------------------4-----------------------------------------------------------------------------------4-----------------
A|--4-----------------------4--------------------------------------------------------------------------------------------------------
D|--4-----------------------4-----------------------------------------4----4----4---------5---------4--------------------------
G|--6-------6------6---6---6---------6-----6----6---------------------------------------------------------------------------------
B|--7----7------------------7------7------------------------------------7----7----7---------5---------7----------------------------
 e|--6----------4----4------6---------4-----4-------4-4-6-7-6------------------------------------------------6-----------------

00:08 seg
E|--4-----------------------4-------------------------4----------------------------------------------------------------------------
A|--4-----------------------4-------------------------4-----------------------------------------------------------------------------
D|--4-----------------------4-------------------------4--------------------------------------------------------------------------
G|--6------6------6---6----6-------6-----6----6----6--------6-------6----6-----------------------------------------------------
B|--7---7-------------------7----7-------------------7-----7-----------------------------------------------------------------------
 e|--6----------4----4------6---------4-----4--------6-----------4-----4------4-4-6-7-6--------------------------------------


00:08 seg
E|--4------------------------4-----------------------------------------------------------------------------------5-----------------
A|--4-----------------------4-----------------------------------------------------------------------------------4--------------------
D|--4-----------------------4-----------------------------------------4----4----4---------5---------4---------4-----------------
G|--6-------6------6---6---6---------6-----6----6---------------------------------------------------------------------------------
B|--7----7------------------7------7------------------------------------7----7----7---------5---------7----------------------------
 e|--6----------4----4------6---------4-----4-------4-4-6-7-6-----------------------------------------------------------------


>>ahora denuevo viene la sampolla<< 20 seg  ahora tocas igual ke la estrofa de recien.

00:08 seg
E|--4-----------------------4-------------------------4----------------------------------------------------------------------------
A|--4-----------------------4-------------------------4-----------------------------------------------------------------------------
D|--4-----------------------4-------------------------4--------------------------------------------------------------------------
G|--6------6------6---6----6-------6-----6----6----6--------6-------6----6-----------------------------------------------------
B|--7---7-------------------7----7-------------------7-----7-----------------------------------------------------------------------
 e|--6----------4----4------6---------4-----4--------6-----------4-----4------4-4-6-7-6--------------------------------------


00:08 seg
E|--4------------------------4-----------------------------------------------------------------------------------4-----------------
A|--4-----------------------4--------------------------------------------------------------------------------------------------------
D|--4-----------------------4-----------------------------------------4----4----4---------5---------4--------------------------
G|--6-------6------6---6---6---------6-----6----6---------------------------------------------------------------------------------
B|--7----7------------------7------7------------------------------------7----7----7---------5---------7----------------------------
 e|--6----------4----4------6---------4-----4-------4-4-6-7-6------------------------------------------------6-----------------

00:08 seg
E|--4-----------------------4-------------------------4----------------------------------------------------------------------------
A|--4-----------------------4-------------------------4-----------------------------------------------------------------------------
D|--4-----------------------4-------------------------4--------------------------------------------------------------------------
G|--6------6------6---6----6-------6-----6----6----6--------6-------6----6-----------------------------------------------------
B|--7---7-------------------7----7-------------------7-----7-----------------------------------------------------------------------
 e|--6----------4----4------6---------4-----4--------6-----------4-----4------4-4-6-7-6--------------------------------------


00:08 seg
E|--4------------------------4-----------------------------------------------------------------------------------5-----------------
A|--4-----------------------4-----------------------------------------------------------------------------------4--------------------
D|--4-----------------------4-----------------------------------------4----4----4---------5---------4---------4-----------------
G|--6-------6------6---6---6---------6-----6----6---------------------------------------------------------------------------------
B|--7----7------------------7------7------------------------------------7----7----7---------5---------7----------------------------
 e|--6----------4----4------6---------4-----4-------4-4-6-7-6-----------------------------------------------------------------

>> 40 seg  ahora es la ultima vez que toca la sampolla y el bombo y despues de esto es toda la estrofa que te  indicare rasgueada 
y un poco de improvisacion d
 tu parte<<

00:08 seg
E|--4-----------------------4-------------------------4----------------------------------------------------------------------------
A|--4-----------------------4-------------------------4-----------------------------------------------------------------------------
D|--4-----------------------4-------------------------4--------------------------------------------------------------------------
G|--6------6------6---6----6-------6-----6----6----6--------6-------6----6-----------------------------------------------------
B|--7---7-------------------7----7-------------------7-----7-----------------------------------------------------------------------
 e|--6----------4----4------6---------4-----4--------6-----------4-----4------4-4-6-7-6--------------------------------------


00:08 seg
E|--4------------------------4-----------------------------------------------------------------------------------4-----------------
A|--4-----------------------4--------------------------------------------------------------------------------------------------------
D|--4-----------------------4-----------------------------------------4----4----4---------5---------4--------------------------
G|--6-------6------6---6---6---------6-----6----6---------------------------------------------------------------------------------
B|--7----7------------------7------7------------------------------------7----7----7---------5---------7----------------------------
 e|--6----------4----4------6---------4-----4-------4-4-6-7-6------------------------------------------------6-----------------

00:08 seg
E|--4-----------------------4-------------------------4----------------------------------------------------------------------------
A|--4-----------------------4-------------------------4-----------------------------------------------------------------------------
D|--4-----------------------4-------------------------4--------------------------------------------------------------------------
G|--6------6------6---6----6-------6-----6----6----6--------6-------6----6-----------------------------------------------------
B|--7---7-------------------7----7-------------------7-----7-----------------------------------------------------------------------
 e|--6----------4----4------6---------4-----4--------6-----------4-----4------4-4-6-7-6--------------------------------------


00:08 seg
E|--4------------------------4-----------------------------------------------------------------------------------4-----------------
A|--4-----------------------4--------------------------------------------------------------------------------------------------------
D|--4-----------------------4-----------------------------------------4----4----4---------5---------4--------------------------
G|--6-------6------6---6---6---------6-----6----6---------------------------------------------------------------------------------
B|--7----7------------------7------7------------------------------------7----7----7---------5---------7----------------------------
 e|--6----------4----4------6---------4-----4-------4-4-6-7-6------------------------------------------------6-----------------

00:08 seg
E|--4-----------------------4-------------------------4----------------------------------------------------------------------------
A|--4-----------------------4-------------------------4-----------------------------------------------------------------------------
D|--4-----------------------4-------------------------4--------------------------------------------------------------------------
G|--6------6------6---6----6-------6-----6----6----6--------6-------6----6-----------------------------------------------------
B|--7---7-------------------7----7-------------------7-----7-----------------------------------------------------------------------
 e|--6----------4----4------6---------4-----4--------6-----------4-----4------4-4-6-7-6--------------------------------------


00:08 seg
E|--4------------------------4-----------------------------------------------------------------------------------4-----------------
A|--4-----------------------4--------------------------------------------------------------------------------------------------------
D|--4-----------------------4-----------------------------------------4----4----4---------5---------4--------------------------
G|--6-------6------6---6---6---------6-----6----6---------------------------------------------------------------------------------
B|--7----7------------------7------7------------------------------------7----7----7---------5---------7----------------------------
 e|--6----------4----4------6---------4-----4-------4-4-6-7-6------------------------------------------------6-----------------

>> y ahora terminas con la primera estrofa<<

00:08 seg
 E|---------------------------------------------------------------------------------------------------------------------------------
A|--------------------------------------------------------------------------------------------------------------------------------
D|--4---------------------------4----------------------------4-------------------------------------------------------------------
G|----------6----6----6----6-----------6----6----6----6------------6----6-----6----6----------------------------------------
B|-------7-----6----6----6--------7-----6----6----6-------------7-----6----6----6-------------------------------------------
 e|----------------------------------------------------------------------------------------------4-4-6-7-6-4--------------------

00:08 seg
E|--------------------------------------------------------------------------------------------------------------------------4-----
A|---------------------------------------------------------------------------------------------------------------------------------
D|--4---------------------------4----------------------------------------------------4--4--4------.5----4-----------------------
G|----------6----6----6----6-----------6----6----6----6-----------------------------------------------------------------------
   B|-------7-----6----6----6--------7-----6----6----6-------------------------------7--7--7-------5----7---------------------
 e|------------------------------------------------------------------4-4-6-7-6---------------------------------------------6-----





00:08 seg
E|---------------------------------------------------------------------------------------------------------------------------------
A|--------------------------------------------------------------------------------------------------------------------------------
D|--4---------------------------4----------------------------4-------------------------------------------------------------------
G|----------6----6----6----6-----------6----6----6----6------------6----6-----6----6----------------------------------------
B|-------7-----6----6----6--------7-----6----6----6-------------7-----6----6----6-------------------------------------------
 e|----------------------------------------------------------------------------------------------4-4-6-7-6-4--------------------

00:08 seg
E|--------------------------------------------------------------------------------------------------------------------------4-----
A|---------------------------------------------------------------------------------------------------------------------------------
D|--4---------------------------4----------------------------------------------------4--4--4------.5----4-----------------------
G|----------6----6----6----6-----------6----6----6----6-----------------------------------------------------------------------
   B|-------7-----6----6----6--------7-----6----6----6-------------------------------7--7--7-------5----7---------------------
 e|------------------------------------------------------------------4-4-6-7-6---------------------------------------------6-----

00:08 seg
E|-----------------------------------------------------------------4-----
A|-----------------------------------------------------------------------
D|-------------------------4--4--4------.5----4-----------------------
G|--------------------------------------------------------------------------
   B--------------------------7--7--7-------5----7---------------------
 e|--------4-4-6-7-6---------------------------------------------6-----

00:08 seg
E|-----------------------------------------------------------------4-----
A|-----------------------------------------------------------------------
D|-------------------------4--4--4------.5----4-----------------------
G|--------------------------------------------------------------------------
   B--------------------------7--7--7-------5----7---------------------
 e|--------4-4-6-7-6---------------------------------------------6-----

00:08 seg
E|-----------------------------------------------------------------4-----
A|-----------------------------------------------------------------------
D|-------------------------4--4--4------.5----4-----------------------
G|--------------------------------------------------------------------------
   B--------------------------7--7--7-------5----7---------------------
 e|--------4-4-6-7-6---------------------------------------------6-----





Calificar esta versión:
Aviso: Este fichero es trabajo propio de su transcriptor y representa su interpretación personal de la canción. El material contenido en esta página es para exclusivo uso privado, por lo que se prohibe su reproducción o retransmisión, así como su uso para fines comerciales.