Charahua, Inti Illimani (tablatura)

Autor: jol_20 | 37831 visualizaciones



Hola, bueno para mi este tema de inti illimani para mi gusto el mejor 
y tiene que estar en este sitio. Aquí va!



Intro: 

|------0-----0-----0-----0----|------0-----0-----0-----0----|
|-----------------------------|-----------------------------|
|----1-----1-----1-----1------|----1-----1-----1-----1------|
|--2-----2-----2-----0-----4--|--2-----2-----2-----0-----4--|   
|-----------------------------|-----------------------------|
|-----------------------------|-----------------------------|



1ª Parte:

  E         E                      D                    E
|-----|--------------------|---------------|------------------------------------------|
|-----|----------------~5--|--3------------|------------------------------------------|                  
|-----|------1---1---1-----|----4-2-1------|----------2-~1--------------------1---1---|
|-----|--~2----2---2-------|----------2-0--|--4-0-4-0----------------------~2---2-...-| 
|-----|--------------------|---------------|------------------------------------------|
|-----|--------------------|---------------|------------------------------------------|
                                             
|------------------------------------|
|-----------0-----3-2----------------|
|---------1---1-------4-2-~4---------|
|-------2-------2--------------------|
|------------------------------------|
|------------------------------------|        
                                             


 Segunda Parte:  

 Bm  -  F#m  -  C#m  -  A  -  C#m  -  A  -  E  -  D



  Bm         F#m      C#m          A       C#m       A       E            D
|--~2---5---5-~9---9--9-12---11-9-7-9-----|--12-11-9-7-9--9---------------------|
|--~3-----7---------10----------------10--|-----------------10-9--9-9-9-7-5-7---|
|--~4-------------------------------------|-------------------------------------|
|--~4-------------------------------------|-------------------------------------|
|-----------------------------------------|-------------------------------------|
|-----------------------------------------|-------------------------------------|


Bueno, aqui está el tema 'Charagua'. El tema está en su 
perfección y por último espero que les guste!





Comentarios del colaborador: **Hay cualquier pregunta a mi correo: Elmetrosexual_jol18@hotmail.com

Calificar esta versión:
Aviso: Este fichero es trabajo propio de su transcriptor y representa su interpretación personal de la canción. El material contenido en esta página es para exclusivo uso privado, por lo que se prohibe su reproducción o retransmisión, así como su uso para fines comerciales.