Otra Canción, Interpuesto (acordes)

Autor: Anónimo | 19778 visualizaciones

adfsosmgmi


INTRO: D F#m G A

2 VECES
   D           F#m           G               A                D Mi... 
 e|--------------------------------------------------------------|
 b|---7------------7----------10-8-7-7/8-7---10-10-8-7-7/8-7-----|
 g|-9----9-7-9-7-9----9-7-9-7--------------9-----------------9---|
 D|--------------------------------------------------------------|
 A|--------------------------------------------------------------|
 E|--------------------------------------------------------------|
  |                                                              |
  |                                                              |
 e|--------------------------------------------------------------|
 b|--------------------------------------------------------------|
 g|--------------------------------------------------------------|
 D|---4------------4-----------7-5-4-4/5-4-----7-7-5-4-4/5-4-----|
 A|-7----7-5-7-5-7----7-5-7-5--------------7-----------------7---|
 E|--------------------------------------------------------------|

D               F#m
Mi vida es un avion de papel
       G                  A
Vuela poco para despues caer
D                   F#m   
El dolor es como un parto de mujer
G                                A
Como la cruda por las chelas de ayer

D                     F#m 
Ella se fue con el primero que paso
        G               A
Con el mas carita del salon
D                      F#m
Yo le entregue todo mi amor
           G              A
No le importo destrozarme el corazon

D        F#m
Adios al amor
 G         A
Adios al dolor

D                       F#m
Ya no habra mas rock and roll
     G                A
Ya no habra otra cancion
Ya no habra mas rock and roll
Ya no habra otra cancion

Camine por horas tratando de olvidar
Aquel sueño que me hizo llorar
Mis labios no paran de temblar
Recordando aquella forma de besar 

Adios al amor 
Adios al dolor
Ya no habra mas rock and roll
Ya no habra otra cancion
Ya no habra mas rock and roll
Ya no habra otra cancion

SE REPITE EL INTRO 2 VECES IGUAL





Calificar esta versión:
Aviso: Este fichero es trabajo propio de su transcriptor y representa su interpretación personal de la canción. El material contenido en esta página es para exclusivo uso privado, por lo que se prohibe su reproducción o retransmisión, así como su uso para fines comerciales.