No Puede Ser, Infierno 18 (acordes)

Autor: solxpunk | 18524 visualizaciones

a5b5d5e5


 Intro en base A5-B5-D5


    A5      B5       D5
e|-5-9-5-9~-7-7-5-7-9-7-5-|
B|------------------------|
G|------------------------|
D|------------------------|
A|------------------------|
E|------------------------|

    A5      B5       D5  A5  B5 D5 A5  B5 D5
e|-5-9-5-9~-7-7-5-7-9-7-5-5~~-5~-5~-5~-5/7~-|
B|------------------------------------------|
G|------------------------------------------|
D|------------------------------------------|
A|------------------------------------------|
E|------------------------------------------|

A5          B5             D5
No puede ser que vos no estés conmigo
A5          B5              D5
no puede ser que te vea en todas partes
A5          B5           D5
no puede ser que seamos solo amigos
A5          B5           D5
no puede ser que nos perdamos otra vez

A5-B5-D5

A5
Quiero que nos veamos
D5         E5
agarrarnos de la mano
A5
quiero que puedas ver
D5          E5
lo que esto pudo ser

A5
Quiero que nos veamos
D5         E5
agarrarnos de la mano
A5
quiero que puedas ver
D5          E5
lo que esto pudo ser


A5-B5-D5 x2

    A5      B5       D5
e|-5-9-5-9~-7-7-5-7-9-7-5-|
B|------------------------|
G|------------------------|
D|------------------------|
A|------------------------|
E|------------------------|

    A5      B5       D5  A5  B5 D5 A5  B5 D5
e|-5-9-5-9~-7-7-5-7-9-7-5-5~~-5~-5~-5~-5/7~-|
B|------------------------------------------|
G|------------------------------------------|
D|------------------------------------------|
A|------------------------------------------|
E|------------------------------------------|

A5          B5            D5
No puede ser quiero estar ya contigo
A5            B5      D5
vamos ayudame probemoslo una vez
A5          B5           D5
no puede ser que estemos tan unidos
A5           B5        D5
pero a la vez lejos lejos me ves

A5-B5-D5

A5
Quiero que nos veamos
D5         E5
agarrarnos de la mano
A5
quiero que puedas ver
D5          E5
lo que esto pudo ser

A5
Quiero que nos veamos
D5         E5
agarrarnos de la mano
A5
quiero que puedas ver
D5          E5
lo que esto pudo ser


A5-B5-D5 x2 con Palm mute y después:

e|--------------------|--|
B|--------------------|--|
G|-22222222-4444-7777-|--|
D|-22222222-4444-7777-|x2|
A|--------------------|--|
E|--------------------|--|

A5 con palm mute
No puede ser que vos no estés conmigo
no puede ser que vos no estés conmigo
no puede ser que vos no estés conmigo
no puede ser que vos no estés conmigo


A5
Quiero que nos veamos
D5         E5
agarrarnos de la mano
A5
quiero que puedas ver
D5          E5
lo que esto pudo ser

A5
Quiero que nos veamos
D5         E5
agarrarnos de la mano
A5
quiero que puedas ver
D5          E5
lo que esto pudo ser


[Sigue igual pero con esto de fondo, escuchien bien la canción]:

e|-5-5-9-7-9-7-5--5555-5-9-7-5-|
Quiero que nos veamos agarrarnos de la mano

e|-5-5-9-7-9-9--5-5-9-7-55-|
quiero que puedas ver lo que esto pudo ser

e|-5-5-9-7-9-7-5--5555-5-9-7-5-|
Quiero que nos veamos agarrarnos de la mano

e|-5-9-5-9~-7-7-5-7/97-55~--5-|
no puede ser que nos perdamos otra vez

 





Calificar esta versión:
Aviso: Este fichero es trabajo propio de su transcriptor y representa su interpretación personal de la canción. El material contenido en esta página es para exclusivo uso privado, por lo que se prohibe su reproducción o retransmisión, así como su uso para fines comerciales.