Talk Shows Mute, Incubus (bajo)

Autor: hugolinkinpark | 22655 visualizaciones



intro
g|----------------------------------------------------------------------|
d|----------------------------------------------------------------------|
a|-3-3--0--3-3-3-3-3-3----3-3--0--3-3-3-3-3-3---------------------------|
e|-----------------------------------------------5-5--3--5-5-5-5-5-5(2x)|


verse
g|----------------------------------------------------------------------|
d|----------------------------------------------------------------------|
a|-3-3--0--3----3-3--0--3-----------------------------------------------|
e|---------------------------5-5--3--5----5-5--3--5---------------------|

chorus
g|----------------------------------------------------------------------|
d|----------------------------------------------------------------------|
a|------3~------3~-------------------3h4h3~~----------------------------|   
e|-1~1~~---1~1~~--3~3----3~3-------1~-------3~3----3~3------------------|
 come on, come all into 1984   yeah,three,two,one lights,camera


verse
g|----------------------------------------------------------------------|
d|----------------------------------------------------------------------|
a|-3-3--0--3----3-3--0--3-----------------------------------------------|
e|---------------------------5-5--3--5----5-5--3--5---------------------|





Comentarios del colaborador: fuente: cifraclub.terra.com.br

Calificar esta versión:
Aviso: Este fichero es trabajo propio de su transcriptor y representa su interpretación personal de la canción. El material contenido en esta página es para exclusivo uso privado, por lo que se prohibe su reproducción o retransmisión, así como su uso para fines comerciales.