Stellar, Incubus (acordes)

Autor: franco maxi | 26798 visualizaciones

adeg


ESTE TEMA ES UN TEMASO ESCUCHE EL ESTRIBILLO ESTA DE 101010

aca les dejo todo estube como 2 semanas para sacar este tema 

Album: Make Yourself
DE fRnco 

leyenda- E, A, D, G
h= hammer on 
p= pull off
/= slide down

Primer Verso
G--------------------------------   
D--------------------------------
A--------------------------------
E---55-----99---------5 5-------9 9

Pre
coro
G--------------------------------   
D--------------------------------
A---5-55-55-5555-222-2-222-2222--
E--------------------------------

1st coro
G-----------------------------------------------  
D--------------6-7-6----6-------------6-7-6--6-7
A-----------4--------77------------4--------7---
E---55-55------------------55-55----------------
Intervalo
G---------------------------------------------- 
D-----------7-7-7--------7--9h10p9-------------
A--00------7-7-7------------------9h10p9-------
E------------------5/--------------------------

G----------------------------------------------
D-----------7-7-7--------7--9h10p9/------------
A--00------7-7-7-------------------------------
E------------------5/-3-------------------------

Segundo verso
G--------------------------------------------  
D--------------------------------------------
A---------------------------------------11-12
E---55-----99---------55-------99----12------

Parte del coro antes de puente
G---------------------------------------------- 
D----------------------------------------------
A----------0-4-0------------------0-4-0--------
E---55-55-------4-0-0-4----55-55-------4-0-4-5

Puente [estas son sólo las notas de la raíz no dude en rellenar con notas repetidas]
G----------------------------------------  
D----------------------------------------
A----------------------------------------
E---5----------3------------0-----------3
antes del último coro repetir el 3er traste de E
ULTIMO CORO
G-----------------------------------------------  
D--------------6-7-6----6-------------6-7-6--6-7
A-----------4--------77------------4--------7---
E---55-55------------------55-55----------------

ULTIMA PARTE DEL CORO
G---------------------------------------------- 
D----------------------------------------------
A----------0-4-0------------------0-4-0--------
E---55--55-------4-0-0-4----55-55-------4-0-4-5  12

ORDEN:
2x primero  Verso
1x Pre coro
2x primero Estribillo 
1x Interlude 
En segundo lugar 4x Verso
1x Pre coro
2x Coro Regular
1x Antes de Estribillo Puente
2x Puente de
2x Coro Regular
2x última parte del Coro
repita la última parte, según sea necesario





Comentarios del colaborador: UUUUUUUUUU LO QUE ME COSTO POR FAVOR PONGALAN

Calificar esta versión:
Aviso: Este fichero es trabajo propio de su transcriptor y representa su interpretación personal de la canción. El material contenido en esta página es para exclusivo uso privado, por lo que se prohibe su reproducción o retransmisión, así como su uso para fines comerciales.