Formas De Sentir, Inconsciente Colectivo (tablatura)

Autor: roberto 18 | 17826 visualizaciones

Intro				  		 		
e---------------|-------------|------------|--------------------|
B-----------0-0-|--------1-1--|--------3-3-|--33--11------------|
G----0-2----0-0-|--0-2---0-0--|--0-2---0-0-|----------44--22--0-|
D---------------|-------------|------------|--------------------|
A---------------|-------------|------------|--------------------|
E---------------|-------------|------------|--------------------|

    (X3)
e--0---0---0-----3--3---3-55-5----|
B--1----1---1----4---4------4-----|
G--0-----0-------5----5-----------|
D--2-------------5----------------|
A--3-------------3----------------|
E--0-------------3----------------|


G	      D		Em	     Bm		
Con solo verte entregándote a vivir

C	     G		 C   Cm
Con solo verte junto a mí

G	      D		Em	     Bm		
Siento que jamás podríamos tratar de 

C	     G	        C   	D
conocer otra forma de sentimiento

C	G	C           G     C       G	     C     Cm	
Para crecer dentro de ti tan solo te debo    sentir

G   D C

G	      D		Em	     Bm		
Pero que extraño a veces llega a tomar 

C	     G		 C   Cm
Razón el separarnos hace bien

G	      D		Em	     Bm		
Dime como se puede reaccionar 

C      G	        C      D
si te vuelvo a encontrar


C	          G      C     G                    C       G     C  Cm  G	
Si te puedo abrazar o sonreír o si tan solo te deba               sentir


D	         Bm	        Em
Uuh, se me olvidaba que te dije 

C				   G
Que me acostumbre a vivir tan solo

D	                  Bm	        Em
Uh, oh, oh, pero recuerda siempre que te di

C			   G
Mas de una razón para vivir

C			   G
Pues eres lo mejor para mi

G	   D	         Em
Tan solo formas de sentir 

C	G	C	G
Para crecer  dentro de ti

G	   D	         Em
Estoy buscando la canción 

C		G	C	G
Que abrase tu piel si no estas aquí 

                  C	      G	   C   Cm
Y que con ella te pueda

	(Intro y por ultimo G)  
sentir.

Comentarios del colaborador: Comentarios o dudas a robertohr18@yahoo.com o www.lacuerda.net

Calificar esta versión:
Aviso: Este fichero es trabajo propio de su transcriptor y representa su interpretación personal de la canción. El material contenido en esta página es para exclusivo uso privado, por lo que se prohibe su reproducción o retransmisión, así como su uso para fines comerciales.