Only For The Weak, In Flames (tablatura)

Autor: xyriax | 14250 visualizaciones

1 -------------------------------------------------------
2 -------------------------------------------------------
3 -----4-------------------------------------------------
4 ---5----------5-6-6-5-4-5-4-0--------------------------
5 -6-----6--5-5-----------------6------------------------
6 -------------------------------------------------------

1 ------------------------------------------------------
2 ------------------------------------------------------
3 ------------------------------------------------------
4 -5-4-5-0----------------------------------------------
5 -5-4-5-0----------------------------------------------
6 -5-4-5-0----------------------------------------------
Calificar esta versión:
Aviso: Este fichero es trabajo propio de su transcriptor y representa su interpretación personal de la canción. El material contenido en esta página es para exclusivo uso privado, por lo que se prohibe su reproducción o retransmisión, así como su uso para fines comerciales.