Omnia Sol Temperat, In Extremo (tablatura)

Autor: raton | 34275 visualizaciones

Omnia Sol Temperat



Album: Sünder ohne Zügel
Tuning: Standard (GDAE)

Intro
G|-------|
D|-------|
A|-------|
E|--71--|

G|-----------------------------------------------|
D|-----------------------------------------------| x2
A|-----------------------------------------------|
E|--11-00--00-11-00--00-11-00--00-11-02223-------|

Chorus
G|-----------------------------------------------|
D|-----------------------------------------------|
A|-----------------------------------------------|
E|--5555555555555555-1111111111111111------------|

G|-----------------------------------------------|
D|-----------------------------------------------|
A|-----------------------------------------------|
E|--5555555555555578-1111111111123333------------|

Verse
G|-----------------------------------------------|
D|-----------------------------------------------| x4
A|--11-1111-1--33-3333-3-------------------------|
E|------------------------1-1111-1--00-000000----|

G|-----------------------------------------------|
D|-----------------------------------------------|
A|-----------11111111-33333333-------------------|
E|--00000000-------------------11111111----------|

G|-----------------------------------------------|
D|-----------------------------------------------|
A|-----------11111111-333-----333----------------|
E|--00000000--------------000-----000------------|

Chorus x2
Verse x1
Chorus x1

Bridge
G|------------------|
D|------------------|
A|------------------|
E|--0—-0—-0--0------|

G|--------------------|
D|--------------------| x6
A|--------------------|
E|--0-0000-1----------|

G|-----------------------------------------------|
D|-----------------------------------------------| x2
A|-----------------------------------------------|
E|--11-00--00-11-00--00-11-00--00-11-02223-------|

Chorus x3

End
G|--------------------------------------------|
D|--------------------------------------------| 
A|--------------------------------------------|
E|--11-00--00-11-00--00-11-00--00-11-00-------|
Calificar esta versión:
Aviso: Este fichero es trabajo propio de su transcriptor y representa su interpretación personal de la canción. El material contenido en esta página es para exclusivo uso privado, por lo que se prohibe su reproducción o retransmisión, así como su uso para fines comerciales.