Húmeda, Illya Kuriaki And The Valderramas (acordes)

Autor: Anónimo | 22380 visualizaciones

falammi
+ Tablaturas de la Vanguardia del Rock          +
+ http://www.geocities.com/BourbonStreet/6195/  +
+++++++++++++++++++++++++++++++++++++++++++++++++

ok humeda esta mas o menos asi:
[es MUY basica, en el compact tocan los acordes barra y cuando cambian los
acords tocan algun tipo de slide... no se como describirlo]

el verso toca:
-------0-------------------0------------------0--------------------0----------
------------0----1-------------0----1-------------0------1------------0----1--
---2-----------------21----------------1-------------------0--------------
-------------------------------------------------------------------------3----
------------------------------------------------------------------------------
------------------------------------------------------------------------------

despues, para el coro [sabes bien, no podre sin ti a lado mio...] se toca
Lam Mi y un acorde asi:

______/
 | | | | o
 | | | o |    no se como se llama
 | | o | |    parece que es algun tipo de Fa con Mi [lo llamare Fa]
                   [yo se muy poco sobre teoria de musica] 
no es justamente Mi, es algun variacion, no es Mim, pero si lo tocas con
emfasis en las cuerdas bajas, suena bastante bien...

asi es:
Lam             Mi      Fa                   Lam
         sabes bien  no podre sin ti al lado mio
         sabes bien  te amare oh aunque no estes aqui


luego hay un solo para la guitarra. tocan Rem y La [mas o menos] y para mi
tocan los acordes barra.  [o sea:]
__La__/
 ----------  [5]
 | | | o | |
 | o o | | | 

ok despues tocan:

-------------------0--------------------------------------------3-
--------------0---------0---------------------------------0-------
---------2--------------------2---------2---------2---------------
----4-----------------------------4----------3--------------------
------------------------------------------------------------------
------------------------------------------------------------------
Calificar esta versión:
Aviso: Este fichero es trabajo propio de su transcriptor y representa su interpretación personal de la canción. El material contenido en esta página es para exclusivo uso privado, por lo que se prohibe su reproducción o retransmisión, así como su uso para fines comerciales.