Chaco, Illya Kuriaki And The Valderramas (bajo)

Autor: Anónimo | 38242 visualizaciones

Este tema es facil, nomas ponganle algo de onda y
dejense llevar.

BASE:
G --------------------
D ---4-5-4----3-4-3---
A -3--------2---------
E --------------------

ESTRIBILLO:
G -------------3/4-----------------
D -----4---5-------------3-44-345--
A -3-----------------3-------------
E ---------------------------------

INTERMEDIO '1'
G --------------------------------------------
D -0-2-3-4-5---------3---0-2-3-5-3---------3--
A --------------------3---------------------3-
E --------------------------------------------

y despues hace:
G --------------
D --------------
A --x---0-0-3---
E --------------

INTERMEDIO '2'
G --------------------------------------
D --------------------------------------
A --------------------------------------
E --3------3------3------3------2/3h5/3-

OUTRO
G ------------
D ----3--2--4-
A -3----------
E ------------

Y despues termina con:
A --3----------

Estructura del tema:

Base X4
Estribillo X2
Base X8
Intermedio '1' X2
Estribillo X4
Base X8
Intermedio '2'
Estribillo X4
Outro X18
Calificar esta versión:
Aviso: Este fichero es trabajo propio de su transcriptor y representa su interpretación personal de la canción. El material contenido en esta página es para exclusivo uso privado, por lo que se prohibe su reproducción o retransmisión, así como su uso para fines comerciales.