Caballo Violeta, Illya Kuriaki And The Valderramas (tablatura)

Autor: Anónimo | 24669 visualizaciones

-|---------------|--------------|---------------------------------------------
-|0-0--0-0--0-0--|0-------------|---------------------------------------------
-|4----4----4----|0---0--0h3p0--|---------------------------------------------
-|-5-5--5-5--5-5-|-h2--2------2-|---------------------------------------------
-|7----5----3----|-h2---2------2|---------------------------------------------
-|---------------|0-------------|---------------------------------------------
ven cerca mio... ...se repite 2 veces intro 

-|---------------|--------------|---------------------------------------------
-|0-0--0-0--0-0--|0-------------|---------------------------------------------
-|4----4----4----|0---0--0h3p0--|---------------------------------------------
-|-5-5--5-5--5-5-|-h2--2------2-|---------------------------------------------
-|7----5----3----|-h2---2------2|---------------------------------------------
-|---------------|0-------------|---------------------------------------------
...caballo violeta... etc sigue al coro 

-|-0------------------0--------------------|-0--------------0-----------0-|---
-|-1------------------1--------------------|-1--------------1----------h1-|---
-|-2------------------2--------------------|-2--------------0----------h2-|---
-|-3------------------2--------------------|-3--------------2----------h2-|---
-|-3------------------0--------------------|-3--------------3-----------0-|---
-|-0---------------------------------------|-0--------------0-----------0-|---
...presientes el miedo... ...al decirme adios... 

-|-3------------------0--------------------|-0----------------------------|---
-|-0------------------1--------------------|-1----------------------------|---
-|-0------------------2--------------------|-2----------------------------|---
-|-0------------------3--------------------|-2------------------------0---|---
-|-2------------------3--------------------|-0----------------0-p-2-------|---
-|-3------------------0--------------------|-0----------------------------|---
...cui d a r e b i e n d e tu valle 

-|----------------|----------------|------------------------------------------
-|-0-0--0-0--0-0--|-0--------------|------------------------------------------
-|-4----4----4----|-0---0--0h3p0---|------------------------------------------
-|--5-5--5-5--5-5-|--h2--2------2--|------------------------------------------
-|-7----5----3----|--h2---2------2-|------------------------------------------
-|----------------|-0--------------|------------------------------------------
...(se repite)...
Calificar esta versión:
Aviso: Este fichero es trabajo propio de su transcriptor y representa su interpretación personal de la canción. El material contenido en esta página es para exclusivo uso privado, por lo que se prohibe su reproducción o retransmisión, así como su uso para fines comerciales.